Moving Units - Submission Chords & Tabs

 

Submission Chords & Tabs

Moving Units Chords & Tabs

Version: 1 Type: Bass Tab 0 ratings
1 star 2 stars 3 stars 4 stars 5 stars
comments

Submission Bass Tab

tabbed by: cameron caceres
e-mail:megaherz5564@yahoo.com
Hey,kids there is a typo in my last one in the outro (Between Us And Them)instead of the 
being on the E it's supposed to be played on he A but everything else is right , sorry guys.
verse:x 9
G---------------------------------------------------5--6-----------|
D--5-3------5-3-5-3-------5-3-5-3-------5-3-5-3-5------------------|
A------3-4----------3-4-----------3-4-------------3--4-------------|
E----------3------------3-------------3----------------------------|
[ Tab from: http://www.guitartabs.cc/tabs/m/moving_units/submission_btab.html ]
pre chorus:x8
G------------------------------------------------------------------|
D--5-3-------5-----6----8--6---------------------------------------|
A------3-4---------------------------------------------------------|
E----------3---3-4--4-6--4-----------------------------------------|
Then go back to the verse.x7 or something like that you'll see.

Outro:
G--5-3----3-------------------5-3-----3----------------------------|
D-----4-5--4-5-----6-6---8--6-----4-5--4-5-----6-6---8---9---------|
A--------------3---------------------------3-----------------------|
E----------------4-----6--4------------------4-----6---7-----------|
Do this until you've completed the song.
CONGRATS you finished this cool song no worrys though i'll keep up the good work.
Drive safely.
Comments