Moving Units - Emancipation Chords & Tabs

 

Emancipation Chords & Tabs

Moving Units Chords & Tabs

Version: 1 Type: Tab 0 ratings
1 star 2 stars 3 stars 4 stars 5 stars
comments

Emancipation Tab

Matt N
mnabster159@yahoo.com email me for questions

Standard Tuning:eBGDAE

You need a capo on the first fret

the notes are in relation to the capo

INTRO
[ Tab from: http://www.guitartabs.cc/tabs/m/moving_units/emancipation_tab.html ]
|-----------------------------------------------5/8--|
|-------0----0----0---------------0----0----0---5/8--|
|-----8----8----8---------------8----8----8-----5/8--|
|---6----5----4------4-4-5-5--6----5----4------------|
|----------------------------------------------------|
|----------------------------------------------------|

RIFF

|---4-4----4-3----3-4----5----4-4----4-3---3-4/11-11-11-11--|
|---4-4----4-3----3-4----5----4-4----4-3---3-4/11-11-11-11--|
|---4-4----4-3----3-4----5----4-4----4-3---3-4/11-11-11-11--|
|-----------------------------------------------------------|
|-----------------------------------------------------------|
|-----------------------------------------------------------|
Comments