Movielife - Walking On Glass Chords & Tabs

 

Walking On Glass Chords & Tabs

Movielife Chords & Tabs

Version: 1 Type: Tab 0 ratings
1 star 2 stars 3 stars 4 stars 5 stars
comments

Walking On Glass Tab

The Movielife
...Has a Gambling Problem
Walking on Glass

The notes are there but the rhythm is probably a little wrong.

()=palm mutes

Verse
Gb------------------4-4-444-44-4-444------
Db--2-2-222-6-6-666-4-4-444-44-4-444------
Ab--2-2-222-6-6-666-2-2-222-22-2-222------
Eb--0-0-000-4-4-444-----------------------

Pre-chorus
Gb--2-2-222-----------------------------
Db--2-2-222-6-66-666-4-4-444-2-22-222---
Ab--0-0-000-6-66-666-4-4-444-2-22-222---
Eb----------4-44-444-2-2-222-0-00-000---

Gb--2-2-222----------4-4-444-4-44-444---
Db--2-2-222-6-66-666-4-4-444-4-44-444---
Ab--0-0-000-6-66-666-2-2-222-2-22-222---
Eb----------4-44-444--------------------
[ Tab from: http://www.guitartabs.cc/tabs/m/movielife/walking_on_glass_tab.html ]
Chorus
Gb-------------------2-2--2--2-2--2-2-6-6--6--6-6--6-6-4-4--4--4-4--4-4--
Db--2-2--2--2-2--2-2-2-2--2--2-2--2-2-6-6--6--6-6--6-6-4-4--4--4-4--4-4--
Ab--2-2--2--2-2--2-2-0-0--0--0-0--0-0-4-4--4--4-4--4-4-2-2--2--2-2--2-2--
Eb--0-0--0--0-0--0-0-----------------------------------------------------

Gb--2-(22222222)-4-44-444-4-44---
Db--2-(22222222)-4-44-444-4-44---
Ab--0-(00000000)-2-22-222-2-22---
Eb-------------------------------

Bridge "You're uncomfortable…" (not sure about the end of line for 2nd guitar)
Gb--2-(2-2-2-2-2-2-2)-4-(4-4-4-4-4-4-4)--
Db--2-(2-2-2-2-2-2-2)-4-(4-4-4-4-4-4-4)--
Ab--0-(0-0-0-0-0-0-0)-2-(2-2-2-2-2-2-2)--
Eb---------------------------------------


The ending is the same as chorus but different rhythm and slides and stuff.

Format

Verse:  6x
Pre-chorus:  2x
Verse:  4x
Pre-chorus:  2x
Chorus:  2x
Verse:  6x
Pre-chorus:  2x
Chorus:  2x
Bridge:  3x
Ending
Comments