Movielife - Scary Chords & Tabs

 

Scary Chords & Tabs

Movielife Chords & Tabs

Version: 1 Type: Tab 0 ratings
1 star 2 stars 3 stars 4 stars 5 stars
comments

Scary Tab

   
The Movielife
Scary
Forty Hour Train Back To Penn
************************************************************

In Eb Tuning

INTRO 
[Guitar 1]                      
eb|-2~-------------------------------|
Bb|-2~-------------------------------|
Gb|-2~-------------------------------|
Db|-4~-------------------------------|
Ab|-4~-------------------------------|
Eb|-2~-------------------pickslide---|

[Guitar 2]                    
eb|-2~---------2--2~-----------------|
Bb|-2~------------2~-----------------|
Gb|-2~------------2~-----------------|
Db|----------------------------------|
Ab|----------------------------------|
Eb|----------------------pickslide---|

CHORUS
[Guitar 1]                      
eb|---------------------------------|
Bb|---------------------------------|
Gb|---1-2-1-----------1-2-1---4-1---|
Db|---------4-2-1-2---------2-------|
Ab|-4---------------2---------------|
Eb|---------------------------------|
[Guitar 2]
eb|---------------------------------|
Bb|---------------------------------|
Gb|-6-6-6-6---------4-4-4-4---------|
Db|-6-6-6-6-2-2-2-2-4-4-4-4-4-4-4-4-|
Ab|-4-4-4-4-2-2-2-2-2-2-2-2-4-4-4-4-|
Eb|---------0-0-0-0---------2-2-2-2-|

[Guitar 1] 
eb|---------------------------------|
Bb|---------------------------------|
Gb|---1-2-1-------------------------|
Db|---------4-2-1-2-2--2h4-1--2h4---|
Ab|-4-------------------------------|
Eb|---------------------------------|
[Guitar 2]
eb|---------------------------------|
Bb|---------------------------------|
Gb|-6-6-6-6---------4-4-4-4---------|
Db|-6-6-6-6-2-2-2-2-4-4-4-4-4-4-4-4-|
Ab|-4-4-4-4-2-2-2-2-2-2-2-2-4-4-4-4-|
Eb|---------0-0-0-0---------2-2-2-2-|


VERSE 1
[Guitar 1]
eb|---------------------------------|
Bb|---------------------------------|
Gb|-6-6-6-6-6-6-6-6-6-6-6-6-6-6-6-6-|
Db|-x-x-x-x-x-x-x-x-x-x-x-x-x-x-x-x-|
Ab|-4-4-4-4-4-4-4-4-4-4-4-4-4-4-4-4-|
Eb|---------------------------------|

[Guitar 2]
eb|---------------------------------|
Bb|-----7~--------------7~----------|
Gb|---6~--------------6~------------|
Db|-4~--------------4~--------------|
Ab|---------------------------------|
Eb|---------------------------------|
[ Tab from: http://www.guitartabs.cc/tabs/m/movielife/scary_tab.html ]
[Both Guitars]
eb|---------------------------------|
Bb|---------------------------------|
Gb|-4-4-4-4-4-4-4-4-----------------|
Db|-4-4-4-4-4-4-4-4-7-7-7-7-7-7-7-7-|
Ab|-2-2-2-2-2-2-2-2-7-7-7-7-7-7-7-7-|
Eb|-----------------5-5-5-5-5-5-5-5-|

PRE CHORUS
[Both Guitars]
eb|---------------------------------|
Bb|---------------------------------|
Gb|-4-4-4-4-4-4-4-4-----------------|
Db|-4-4-4-4-4-4-4-4-7-7-7-7-7-7-7-7-|
Ab|-2-2-2-2-2-2-2-2-7-7-7-7-7-7-7-7-|
Eb|-----------------5-5-5-5-5-5-5-5-|

BRIDGE
[Guitar 1]
eb|---------------------------------|
Bb|---------------------------------|
Gb|-8-8-8-8-6-6-6-6-4-4-4-4-4-4-4-4-|
Db|-x-x-x-x-x-x-x-x-4-4-4-4-4-4-4-4-|
Ab|-6-6-6-6-4-4-4-4-2-2-2-2-2-2-2-2-|
Eb|---------------------------------|

eb|---------------------------------|
Bb|---------------------------------|
Gb|-8-8-8-8-6-6-6-6-4-4-4-4-4-4-4-4-|
Db|-x-x-x-x-x-x-x-x-4-4-4-4-4-4-4-4-|
Ab|-6-6-6-6-4-4-4-4-2-2-2-2-2-2-2-2-|
Eb|---------------------------------|

eb|---------------------------------|
Bb|---------------------------------|
Gb|-8-8-8-8-6-6-6-6-4-4-4-4-4-4-4-4-|
Db|-x-x-x-x-x-x-x-x-4-4-4-4-4-4-4-4-|
Ab|-6-6-6-6-4-4-4-4-2-2-2-2-2-2-2-2-|
Eb|---------------------------------|

eb|---------------------------------|
Bb|---------------------------------|
Gb|-----------------4-4-4-4-4-4-4-4-|
Db|-7-7-7-7-7-7-7-7-4-4-4-4-4-4-4-4-|
Ab|-7-7-7-7-7-7-7-7-2-2-2-2-2-2-2-2-|
Eb|-5-5-5-5-5-5-5-5-----------------|

eb|------------------|
Bb|------------------|
Gb|---------4-4-4-4--|
Db|-7-7-7-7-4-4-4-4--|
Ab|-7-7-7-7-2-2-2-2--|
Eb|-5-5-5-5----------|

[Guitar 2]
Randomly Play notes of the F#m Chord

OUTRO
eb|---------------------------------|
Bb|---------------------------------|
Gb|-8-8-8-8-6-6-6-6-4~--------------|
Db|-x-x-x-x-x-x-x-x-4~--------------|
Ab|-6-6-6-6-4-4-4-4-2~--------------|
Eb|---------------------------------|

SONG STRUCTURE
Intro      [x1]
Chorus     [x2]
Verse      [x2]
Chorus     [x2]
Verse      [x2]
PreChorus  [x1]
Chorus     [x2]
Bridge     [x1]
Chorus     [x2]
Outro      [x1]

************************************************************
tabbed by mike jones
email corrections to subordinate333@yahoo.com
Comments