Movielife - Kelly Song Chords & Tabs

 

Kelly Song Chords & Tabs

Movielife Chords & Tabs

Version: 2 Type: Tab 0 ratings
1 star 2 stars 3 stars 4 stars 5 stars
comments

Kelly Song Tab

The Movielife
Kelly Song
Forty Hour Train Back To Penn
************************************************************

INTRO
[Guitar 1 / 0:00 - 0:05]    
eb|-------------------------------------2-----|
Bb|----4---------4---------4--------------4---|
Gb|------4---------4---------4--------4-------|
Db|-------------------------------------------|
Ab|------------2------------------------------|
Eb|--4-------------------0----------2---------|

[Guitar 1 / 0:05 - 0:11]
eb|------------2------------------------2-----|
Bb|----4---------4---------4--------------4---|
Gb|------4---------4---------4--------4-------|
Db|-------------------------------------------|
Ab|-------------------------------------------|
Eb|--4-------------------0----------2---------|

[Guitar 1 / 0:11 - 0:17]
eb|-------------------------------------2-----|
Bb|----4---------4---------4--------------4---|
Gb|------4---------4---------4--------4-------|
Db|-------------------------------------------|
Ab|------------2------------------------------|
Eb|--4-------------------0----------2---------|
[Guitar 2 / 0:11 - 0:17]
eb|-------------------------------------------|
Bb|-7~----------------------------------7-----|
Gb|-8~----------------------------------------|
Db|-9~----------------------------------------|
Ab|-------------------------------------------|
Eb|-------------------------------------------|

[Guitar 1 / 0:17 - 0:23]
eb|-------------------------------------2-----|
Bb|----4---------4---------4--------------4---|
Gb|------4---------4---------4--------4-------|
Db|-------------------------------------------|
Ab|------------2------------------------------|
Eb|--4-------------------0----------2---------|
[Guitar 2 / 0:17 - 0:23]                      
eb|-------------------------------------------|
Bb|-7~----------------------------------------|
Gb|-8~----------------------------------------|
Db|-9~----------------------------------------|
Ab|-------------------------------------------|
Eb|-------------------------------------------|

VERSE 1
[Guitars 1 & 2 / 0:23 - 0:29]                      
eb|-------------------------------------------|
Bb|-------------------------------------------|
Gb|-----------44444444------------------------|
Db|-66666666--44444444--22222222--44444444----|
Ab|-66666666--22222222--22222222--44444444----|
Eb|-44444444------------00000000--22222222----|
   [PM------------------------------------]

[Guitars 1 & 2 / 0:29 - 0:34]                      
eb|-------------------------------------------|
Bb|-------------------------------------------|
Gb|-----------44444444------------------------|
Db|-66666666--44444444--22222222--44444444----|
Ab|-66666666--22222222--22222222--44444444----|
Eb|-44444444------------00000000--22222222----|
   [PM--------------------------]

PRECHORUS
[Guitars 1& 2 / 0:34 - 0:45 / Play x2]       
eb|-------------------------------------------|
Bb|-------------------------------------------|
Gb|-4-4-4-44----------------------------------|
Db|-4-4-4-44--4-4-4-44--6-6-6-66--2-2-2-22----|
Ab|-2-2-2-22--4-4-4-44--6-6-6-66--2-2-2-22----|
Eb|-----------2-2-2-22--4-4-4-44--0-0-0-00----|

[Guitars 1 & 2 / 0:45 - 0:48]       
eb|-------------------------------------------|
Bb|-------------------------------------------|
Gb|-------------------------------------------|
Db|-4-4-2-2--4-4-2-2--4-4-2-2--4-4-2-2--------|
Ab|-4-4-2-2--4-4-2-2--4-4-2-2--4-4-2-2--------|
Eb|-2-2-0-0--2-2-0-0--2-2-0-0--2-2-0-0--------|

CHORUS
[Guitars 1 & 2 / 0:48 - 0:57 / Play x3]
eb|-------------------------------------------|
Bb|-------------------------------------------|
Gb|-4-4-4-------------------------------------|
Db|-4-4-4--6-6-6--2-2-2--4-4-4----------------|
Ab|-2-2-2--6-6-6--2-2-2--4-4-4----------------|
Eb|--------4-4-4--0-0-0--2-2-2----------------|

[Guitars 1 & 2 / 0:57 - 1:00]
eb|-------------------------------------------|
Bb|-------------------------------------------|
Gb|-------------------------------------------|
Db|-2-2-2-2--4-4---2-2-2----------------------|
Ab|-2-2-2-2--4-4---2-2-2----------------------|
Eb|-0-0-0-0--2-2---0-0-0----------------------|

INTERLUDE
[Guitar 1 / 1:00 - 1:05]    
eb|-------------------------------------2-----|
Bb|----4---------4---------4--------------4---|
Gb|------4---------4---------4--------4-------|
Db|-------------------------------------------|
Ab|------------2------------------------------|
Eb|--4-------------------0----------2---------|
[Guitar 2 / 1:00 - 1:05]                      
eb|-------------------------------------------|
Bb|-7~------------------------------7---------|
Gb|-8~----------------------------------------|
Db|-9~----------------------------------------|
Ab|-------------------------------------------|
Eb|-------------------------------------------|
[ Tab from: http://www.guitartabs.cc/tabs/m/movielife/kelly_song_tab_ver_2.html ]
[Guitar 1 / 1:05 - 1:11]    
eb|-------------------------------------2-----|
Bb|----4---------4---------4--------------4---|
Gb|------4---------4---------4--------4-------|
Db|-------------------------------------------|
Ab|------------2------------------------------|
Eb|--4-------------------0----------2---------|
[Guitar 2 / 1:05 - 1:11]                      
eb|-------------------------------------------|
Bb|-------------------------------------------|
Gb|-------------------------------------------|
Db|-------------------------------------------|
Ab|-------------------------------------------|
Eb|-------------------------------------------|

VERSE 2
[Guitar 1 / 1:11 - 1:23 / Play x2]            
eb|-------------------------------------------|
Bb|-------------------------------------------|
Gb|-----------44444444------------------------|
Db|-66666666--44444444--22222222--44444444----|
Ab|-66666666--22222222--22222222--44444444----|
Eb|-44444444------------00000000--22222222----|
   [PM------------------------------------]

[Guitar 1 / 1:23 - 1:29]            
eb|-------------------------------------------|
Bb|-------------------------------------------|
Gb|-----------44444444------------------------|
Db|-66666666--44444444--22222222--44444444----|
Ab|-66666666--22222222--22222222--44444444----|
Eb|-44444444------------00000000--22222222----|
   [PM------------------------------------]
[Guitar 2 / 1:23 - 1:29]                      
eb|-------------------------------------------|
Bb|-7-7--7-7--7-7--7-7--7-7--7-7--7-7--7-7----|
Gb|-8-8--8-8--8-8--8-8--8-8--8-8--8-8--8-8----|
Db|-9-9--9-9--9-9--9-9--9-9--9-9--9-9--9-9----|
Ab|-9-9--9-9--9-9--9-9--9-9--9-9--7-7--7-7----|
Eb|-------------------------------------------|

[Guitar 1 / 1:29 - 1:34]            
eb|-------------------------------------------|
Bb|-------------------------------------------|
Gb|-----------44444444------------------------|
Db|-66666666--44444444--22222222--44444444----|
Ab|-66666666--22222222--22222222--44444444----|
Eb|-44444444------------00000000--22222222----|
   [PM--------------------------]
[Guitar 2 / 1:29 - 1:34]                      
eb|-------------------------------------------|
Bb|-7-7--7-7--7-7--7-7--7-7--7-7--------------|
Gb|-8-8--8-8--8-8--8-8--8-8--8-8--------------|
Db|-9-9--9-9--9-9--9-9--9-9--9-9--------------|
Ab|-9-9--9-9--9-9--9-9--9-9--9-9--------------|
Eb|-------------------------------------------|

BRIDGE
[Guitar 1 / 2:19 - 2:22]   
eb|--0~--------------0~------------------2~---|
Bb|-----4~--------------4~--------------------|
Gb|--------4~--------------4~-----------------|
Db|-------------------------------------------|
Ab|-------------------------------------------|
Eb|-------------------------------------------|

[Guitars 1 & 2 / 1:29 - 1:34] 
eb|-------------------------------------------|
Bb|-------------------------------------------|
Gb|-------------------------------------------|
Db|--4-4-4-4-4-4-4-4-2-2-2-2-2-2-2-2----------|
Ab|--4-4-4-4-4-4-4-4-2-2-2-2-2-2-2-2----------|
Eb|--2-2-2-2-2-2-2-2-0-0-0-0-0-0-0-0----------|
    [PM-----------------------------]

[Guitars 1 & 2 / 1:29 - 1:34]   
eb|-------------------------------------------|
Bb|-------------------------------------------|
Gb|-99999999-4444------99999999-4444----------|
Db|-99999999-4444-4444-99999999-4444-4444-----|
Ab|-77777777-2222-4444-77777777-2222-4444-----|
Eb|---------------2222---------------2222-----|

[Guitar 1 / 1:29 - 1:34]
eb|-------------------------------------------|
Bb|-------------------------------------------|
Gb|-99999999-99999999-99999999-99999999-------|
Db|-99999999-99999999-99999999-99999999-------|
Ab|-77777777-77777777-77777777-77777777-------|
Eb|-------------------------------------------|

[Guitar 2 / 1:29 - 1:34]
Indistinguishable Lead Parts

[Guitars 1 & 2 / 0:45 - 0:48]       
eb|-------------------------------------------|
Bb|-------------------------------------------|
Gb|-------------------------------------------|
Db|-4-4-2-2--4-4-2-2--4-4-2-2--4-4-2-2--------|
Ab|-4-4-2-2--4-4-2-2--4-4-2-2--4-4-2-2--------|
Eb|-2-2-0-0--2-2-0-0--2-2-0-0--2-2-0-0--------|

[Guitars 1 & 2 / 0:45 - 0:48]       
eb|-------------------------------------------|
Bb|-------------------------------------------|
Gb|-------------------------------------------|
Db|-4-4-2-2--4-4-2-2--4-4-2-2--4-4-2-2--------|
Ab|-4-4-2-2--4-4-2-2--4-4-2-2--4-4-2-2--------|
Eb|-2-2-0-0--2-2-0-0--2-2-0-0--2-2-0-0--------|
   [PM--------------------------------]

OUTRO
[Guitars 1 & 2 / 3:11 - 3:33]       
eb|-------------------------------------------|
Bb|-------------------------------------------|
Gb|-------------------------------------------|
Db|--2222-4444-2222-4444-2222-4x----2~--------|
Ab|--2222-4444-2222-4444-2222-4x----2~--------|
Eb|--0000-2222-0000-2222-0000-2x----0~--------|


SONG STRUCTURE
Intro        [x1]   
Verse 1      [x1]
Pre Chorus   [x1]
Chorus       [x1]
Interlude    [x1]
Verse 2      [x1]
Pre Chorus   [x1]
Chorus       [x2]
Bridge       [x1]
Chorus       [x2]
Outro        [x1]

************************************************************
tabbed by mike jones- inspired by paul jackson
email corrections to subordinate333@yahoo.com
Comments