Movielife - Kelly Song Chords & Tabs

 

Kelly Song Chords & Tabs

Movielife Chords & Tabs

Version: 1 Type: Tab 0 ratings
1 star 2 stars 3 stars 4 stars 5 stars
comments

Kelly Song Tab

Kelly Song
By The Movielife

Drop D Tuning

Tabbed by Daniel Smith

Capo on 1 (when I say the fret I mean the actual fret, not relative to the capo)

[-----------------------------------]
[---3-----3-----3-------1-----------]
[-----3-----3-----3-------3---------]
[---------------------1-------------]
[-------1---------------------------]
[-5-----------3-----1---------------]

Progression for chorus and for verse (Palm Muted)
[ Tab from: http://www.guitartabs.cc/tabs/m/movielife/kelly_song_tab.html ]
[-------------------------------------------------]
[-------------------------------------------------]
[-------------------------------------------------]
[-5--8--1--3--------------------------2--2--1-----]
[-5--8--1--3----interlude thingy????--2--2--1-----]
[-5--8--1--3--------------------------2--2--1-----]

This is basically most of the song I didnít tab the whole darn thing cause I
havenít figured that out and I donít want people to think I canít tab well
(even though this is pretty mediocre.)

But hey, Iím not in The Movielife
Enjoy, Daniel
Comments