Movielife - Hey Chords & Tabs

 

Hey Chords & Tabs

Movielife Chords & Tabs

Version: 1 Type: Tab 0 ratings
1 star 2 stars 3 stars 4 stars 5 stars
comments

Hey Tab

The Movielife
Hey
Forty Hour Train Back To Penn
************************************************************

MAIN PART
This is played clean for the intro and 
distorted for the verse
E|-------------------------------------------|
B|-------------------------------------------|
G|--------888888--------666666---------------|
D|-666666-888888-333333-666666---------------|
A|-666666-666666-333333-444444---------------|
E|-444444--------111111----------------------|

E|-------------------------------------------|
B|-------------------------------------------|
G|-666666-888888--------888888---------------|
D|-666666-888888-333333-888888---------------|
A|-444444-666666-333333-666666---------------|
E|---------------111111----------------------|

E|-------------------------------------------|
B|-------------------------------------------|
G|-666-888--------666-888--------8~----------|
D|-666-888-333333-666-888-666666-8~----------|
A|-444-666-333333-444-666-666666-6~----------|
E|---------111111---------444444-------------|
[ Tab from: http://www.guitartabs.cc/tabs/m/movielife/hey_tab.html ]
E|-------------------------------------------|
B|-------------------------------------------|
G|-666-888---------666-888-------------------|
D|-666-888-666-333-666-888-6~----------------|
A|-444-666-666-333-444-666-6~----------------|
E|---------444-111---------4~~---------------|

SOLO
Second guitar the first part of the chord
progression above.
E|-------------------------------------------|
B|--------11---------------------------------|
G|-----8------------------------8--8--8------|
D|-10--------8h10p8h10p8h10---10-10-10-10----|
A|--------------------------10---------------|
E|-------------------------------------------|

E|-------------------------------------------|
B|------11-------11-------11-------11--------|
G|-------------------------------------------|
D|-8h10-----8--------8h10-----8h10-----------|
A|------------10-----------------------------|
E|-------------------------------------------|

E|-----------------88888888------------------|
B|------11111111111--------111111111111------|
G|-------------------------------------------|
D|-8h10--------------------------------------|
A|-------------------------------------------|
E|-------------------------------------------|
          
E|-------------------------------------------|
B|------11-/--13-11--------------------------|
G|------------------13-10~-------------------|
D|-8h10--------------------------------------|
A|-------------------------------------------|
E|-------------------------------------------|

************************************************************
Tabbed By mikejones
Subordinate333@yahoo.com
Comments