Mountain Goats - The Best Ever Death Metal Band In Denton Chords & Tabs

 

The Best Ever Death Metal Band In Denton Chords & Tabs

Mountain Goats Chords & Tabs

Version: 1 Type: Chords 0 ratings
1 star 2 stars 3 stars 4 stars 5 stars
comments

The Best Ever Death Metal Band In Denton Chords

Alright there are about 6 whole tabs for this band anywhere online so I figure
I'd contribute a seventh one.  

The Best Ever Death Metal Band in Denton
by The Mountain Goats
album: All Hail West Texas

this is not hard.

intro:

e|-----5-----3---5------5----7---5---5---5---3---5-------------------|
B|-----5-----3---5------5----7---5---5---5---3---5-------------------|
G|-----7-----4---6------7----9---7---6---7---4---6-------------------|
D|-----7-----5---7------7----9---7---7---7---5---7-------------------|
A|-----5-----5---7------5----7---5---7---5---5---7-------------------|
E|-----5-----3---5------5----7---5---5---5---3---5-------------------|

Verse 1
[ Tab from: http://www.guitartabs.cc/tabs/m/mountain_goats/the_best_ever_death_metal_band_in_denton_crd.html ]
e|--5------3---5----------5---7---5---5---5---3---5---5---7----------|
B|--5------3---5----------5---7---5---5---5---3---5---5---7----------|
G|--7------4---6----x4----7---9---7---6---7---4---6---7---9---x2-----|
D|--7------5---7----------7---9---7---7---7---5---7---7---9----------|
A|--5------5---7----------5---7---5---7---5---5---7---5---7----------|
E|--5------3---5----------5---7---5---5---5---3---5---5---7----------|


Verse 2

e|--5------3---5----------3---5---5---3----------5------3---5--------|
B|--5------3---5----------3---5---5---3----------5------3---5--------|
G|--7------4---6----x2----4---6---7---4----x2----7------4---6----x2--|
D|--7------5---7----------5---7---7---5----------7------5---7--------|
A|--5------5---7----------5---7---5---5----------5------5---7--------|
E|--5------3---5----------3---5---5---3----------5------3---5--------|


'Hail Satan' Part

e|--5---7---5---7---5---3---5------5---7---5---5---5---3---5---5---7-----|
B|--5---7---5---7---5---3---5------5---7---5---5---5---3---5---5---7-----|
G|--7---9---7---9---7---4---6--x2--7---9---7---6---7---4---6---7---9--x2-|
D|--7---9---7---9---7---5---7------7---9---7---7---7---5---7---7---9-----|
A|--5---7---5---7---5---5---7------5---7---5---7---5---5---7---5---7-----|
E|--5---7---5---7---5---3---5------5---7---5---5---5---3---5---5---7-----|

thats it.  the strumming pattern is up to you to figure out.  if there's anything
wrong with it just email me.

torquesmackey@hotmail.com

have fun.
Comments