Mountain - Never In My Life Chords & Tabs

 

Never In My Life Chords & Tabs

Mountain Chords & Tabs

Version: 3 Type: Tab

Never In My Life Tab

Intro: play twice

-------------------------------------------------|
-------------------------------------------------|
-7-----------------------------------------------|
-7--10-9--10-9--10-9--10-9---5-5--7-7------------|
-5--10-9--10-9--10-9--10-9---5-5--7-7------------|
-----8-7---8-7---8-7---8-7---3-3--5-5------------|

Main Riff:
[ Tab from: http://www.guitartabs.cc/tabs/m/mountain/never_in_my_life_tab_ver_3.html ]
--------------------------------------------------------|
--------------------------------------------------------|
----------3b---------3b~---------3b---------------------|
------3-5----5-5-3-5---------3-5----5-5-3---------------|
--3-5--------------------3-5---------------5-3----------|
------------------------------------------------6-3-----|

 its hard to tell the exact strokes, but during the verses these chords are played.

------------------------------------------------------|
------------------------------------------------------|
---5----------------3---------------------------------|
---5------and-------3---------------------------------|
---3----------------1---------------------------------|
------------------------------------------------------|


*The solo and lead licks are mainly played in G minor,
exept for the last part of the verse, where E minor is used.