Motorpsycho - Hey Jane Chords & Tabs

 

Hey Jane Chords & Tabs

Motorpsycho Chords & Tabs

Version: 1 Type: Bass Tab 0 ratings
1 star 2 stars 3 stars 4 stars 5 stars
comments

Hey Jane Bass Tab

This is the bass as it can be played along my guitartabbing of the same song.


Verse:
G---------------------------------------------------------------------------
D-----7---7---7---7---7---7---7-------7---7---7---7---7---7---7-------------
A---5---5---5---5---5---5---5---5---5---5---5---5---5---5---5---5-----------
E---------------------------------8-------------------------------6---------

G---------------------------------------------------------------------------
D-----3---3---3---3---3---3---3---3---3---3---3---3---3---3---3-------------
A---1---1---1---1---1---1---1---1---1---1---1---1---1---1---1---1-0---------
E---------------------------------------------------------------------------

[ Tab from: http://www.guitartabs.cc/tabs/m/motorpsycho/hey_jane_btab.html ]
Bridge1:
G---------------------------------------------------------------------------
D--5----2---3---------------------------------------------------------------
A--5----2---3---------------------------------------------------------------
E--5----2---3---------------------------------------------------------------


Refr.:
G---------------------------------------------------------------------------
D-------------2-3------3---3---3--------------------------------------------
A---0-0-2-3----------3---3---3---3------------------------------------------
E---------------------------------------------------------------------------


Bridge2:
G---------------------------------------------------------------------------
D-----------------------------------------------------0-0-0-0-0-0-0---------
A---0-0-0-0-0-0-0----2-2-2-2-2-2-2----3-3-3-3-3-3-3-------------------------
E---------------------------------------------------------------------------
Comments