Motorhead - Whorehouse Blues Chords & Tabs

 

Whorehouse Blues Chords & Tabs

Motorhead Chords & Tabs

Version: 1 Type: Tab 0 ratings
1 star 2 stars 3 stars 4 stars 5 stars
comments

Whorehouse Blues Tab

   
Artist: Motorhead
Song: Whorehouse Blues
Album: Inferno
Tabbed By: Menno Roymans
email: mennodeman@hotmail.com

Tuning: Eb

Riff one:
Guitar one:

------------------|
------------------|
------------------|
-2--2-------2-----|
-0030-0-030-0-534-|
-------3---3------|

Guitar two (something like this, it's hard to hear):

----------------------------------|
----------------------------------|
-----------------------------/7-5-|
-5po2-------------5po2-------/7-5-|
------5-3-0-3-0-3------5-3-0------|
----------------------------------|

repeat


Riff two:
Guitar one & two:

------------------|
------------------|
-2-42524-2--42524-|
-0000000-0-000000-|
------------------|
------------------|

then play:
1x Riff one
1x Riff two
1x Riff one
1x Riff two


Riff three:
Guitar one & two

---------------------|
---------------------|
---------------------|
-----2-2-------2-2---|
-22--2-2---22--2-2---|
-0034---34-0034---34-|

Then play:
1x Riff one
1x Riff two
1x Riff one
1x Riff two


Riff 3b:
Guitar one & two
[ Tab from: http://www.guitartabs.cc/tabs/m/motorhead/whorehouse_blues_tab.html ]
------------------|
------------------|
------------------|
------------------|
-22425242-24252---|
-00000000-0000034-|

Then play:
1x Riff one
1x Riff two
1x Riff one
1x Riff two
1x Riff 3b
1x Riff one


Solo:
Guitar one play:
1x Riff two
1x Riff one
1x Riff two
1x Riff one
1x Riff 3b
1x Riff one
1x Riff two
1x Riff one
1x Riff two
1x Riff one
1x Riff 3b
1x Riff one

Guitar two solo in Ab, use the scales in the 5th and 12th fret

Then play:
1x Riff two
1x Riff one
1x Riff two
1x Riff one
1x Riff 3b
1x Riff one

Mouthharp solo, guitars play repeat above

Then play:
1x Riff two (end with strumming the Cb chord twice)
1x Riff one
1x Riff two (end with strumming the Cb chord twice)
1x Riff one
1x Riff 3b (end with strumming the Db chord once)


end with something like this:

------------------|
------------------|
-------------2----|
-2--2--------2----|
-0030-0-030--0----|
-------3---3------|


That's it, it was pretty hard, took me a while and it aint perfect but it gets you ahead.
For comments mail to mennodeman@hotmail.com
Comments