Motorhead - Overnight Sensation Chords & Tabs

 

Overnight Sensation Chords & Tabs

Motorhead Chords & Tabs

Version: 1 Type: Tab 0 ratings
1 star 2 stars 3 stars 4 stars 5 stars
comments

Overnight Sensation Tab

   
Motörhead-Overnight Sensation
by guillermo Luppi-Lordaborto@mixmail.com

There are a few variations in the verses, just follow the song 
estrucrure below for not to get lost

Verse variation A

e|--------------------------------|--------------------------------|
B|--------------------------------|--------------------------------|
G|-----5-----5-----5-------5-7-7~-|-----5-----5-----5-------5-5~---|
D|-----5-----5-----5-------5-7-7~-|-----5-----5-----5-------5-5~---|
A|-0-0---0-0---0-0---0-0-0--------|-0-0---0-0---0-0---0-0-0--------|
E|--------------------------------|--------------------------------|
   Verse variation B
e|--------------------------------|--------------------------------|
B|--------------------------------|--------------------------------|
G|-----5-----5-----5-------5-7-7~-|-----5-----5-----5-----5-----5~-|
D|-----5-----5-----5-------5-7-7~-|-----5-----5-----5-----5-----5~-|
A|-0-0---0-0---0-0---0-0-0--------|-0-0---0-0---0-0---6-7---6-7----|
E|--------------------------------|--------------------------------|
   
Chorus
e|---------------|-----------------|---------------|-----------------|
B|---------------|-----------------|---------------|-----------------|
G|---------------|-----------------|---------------|-----------------|
D|-9--7-7--7-----|--9-9--7--7------|-9--7-7--7-----|--9-9--7--7------|
A|-7--5-5--5-7-7-|-77-7--5--5--7-7-|-7--5-5--5-7-7-|-77-7--5--5--7-7-|
E|-----------5-5-|-5-----------5-5-|-----------5-5-|-5-----------5-5-|
                   .		                     .
Fill 1
|------------|
|------------|
|------------|
|------------|
|------------|
|-/17\--/17\-|
[ Tab from: http://www.guitartabs.cc/tabs/m/motorhead/overnight_sensation_tab.html ]
Bridge riff 1 (acoustic guitar, electric guitar plays 
only one chord of each) 
   A            F            D            G
e|--------------------------------------------------|
B|--------------------------------------------------|
G|---------------------------7--7-7--7--7-----------|
D|-7--7-7--7--7-3--3-3--3--3-7--7-7--7--7-5--5-5--5-|
A|-7--7-7--7--7-3--3-3--3--3-5--5-5--5--5-5--5-5--5-|
E|-5--5-5--5--5-1--1-1--1--1--------------3--3-3--3-|

   A            F            G            
e|--------------------------------------------------|
B|--------------------------------------------------|
G|--------------------------------------------------|
D|-7--7-7--7--7-3--3-3--3--3-5--5-5--5--5-5--5-5--5-|
A|-7--7-7--7--7-3--3-3--3--3-5--5-5--5--5-5--5-5--5-|
E|-5--5-5--5--5-1--1-1--1--1-3--3-3--3--3-3--3-3--3-|

Bridge riff 2 (acoustic guitar, electric guitar plays 
only one chord of each) 
   A            C            F            G            
e|--------------------------------------------------|
B|--------------------------------------------------|
G|--------------5--5-5--5--5------------------------|
D|-7--7-7--7--7-5--5-5--5--5-3--3-3--3--3-5--5-5--5-|
A|-7--7-7--7--7-3--3-3--3--3-3--3-3--3--3-5--5-5--5-|
E|-5--5-5--5--5--------------1--1-1--1--1-3--3-3--3-|

   A            C            F                        
e|--------------------------------------------------|
B|--------------------------------------------------|
G|--------------5--5-5--5--5------------------------|
D|-7--7-7--7--7-5--5-5--5--5-3--3-3--3--3-3--3-3--3-|
A|-7--7-7--7--7-3--3-3--3--3-3--3-3--3--3-3--3-3--3-|
E|-5--5-5--5--5--------------1--1-1--1--1-1--1-1--1-|

Structure:

Bass intro 
Verse variation A
Verse variation B
Verse variation A
Verse variation B
Verse variation A
Chorus + fill 1
Verse variation A
Verse variation A
Verse variation B
Verse variation A
Chorus
Bridge Riff 1
Bridge Riff 2
Bass intro riff a number of times (with slight variations) Chorus 
Verse variation A  \ Verse variation A  |
A C F G            | 
A G D D            | solo backing 
A C F F            |
Verse variation A  |
Verse variation A  /
Fade-out
Comments