Motorhead - Metropolis Chords & Tabs

 

Metropolis Chords & Tabs

Motorhead Chords & Tabs

Version: 1 Type: Tab 0 ratings
1 star 2 stars 3 stars 4 stars 5 stars
comments

Metropolis Tab

Motorhead-Metropolis
by guillermo luppi (lordaborto@mixmail.com)

Intro
1-|--------------------------------------------------------------------
2-|--------------------------------------------------------------------
3-|-5/7-7-8-8-10-10-8-8-7-7-8-8-10-10-8-8-7-7-8-8-7-7\5-5\3-3-3-3-3-3-3
4-|--------------------------------------------------------------------
5-|--------------------------------------------------------------------
6-|--------------------------------------------------------------------

Main riff
3-|-5-5-8-10-10-10-10------------------------------------------------
4-|-5-5-8-10-10-10-10------------------------------------------------
5-|-3-3-6--8--8--8--8------------------------------------------------
6-|------------------------------------------------------------------
[ Tab from: http://www.guitartabs.cc/tabs/m/motorhead/metropolis_tab.html ]
Or you can play this as well, it's just as you like best
1-|----------------------------------------------------
2-|----------------------------------------------------
3-|-5-5-8-10-10-10-------------------------------------
4-|-5-5-6--8--8--8-------------------------------------
5-|----------------------------------------------------
6-|----------------------------------------------------

"I don't care, i'm not there"
1|------------------------------------------------------
2|------------------------------------------------------
3|------------------------------------------------------
4|------------------------------------------------------
5|-9-9-9-9-9-12-14-15-12-14-16--------------------------
6|-9-9-9-9-9-12-14-15-12-14-16--------------------------

during the solo play the main riff
Comments