Motorhead - Killed By Death Chords & Tabs

 

Killed By Death Chords & Tabs

Motorhead Chords & Tabs

Version: 1 Type: Bass Tab 0 ratings
1 star 2 stars 3 stars 4 stars 5 stars
comments

Killed By Death Bass Tab

   
Killed By Death
by Motörhead
as performed on the "No Remorse" album
tabbed by Daniel van Boeyen (icrus666@zonnet.nl)

Standard tuning (EADG)
Use a bit of distortion and play with a pick.
It's an easy yet fun song to play.

Intro
G|-------------------------------|----------------------------------|
D|-------------------------------|----------------------------------|
A|--------------5------7-7-7-7-7-|-----------------5-5-5-5-77777777-|
E|-5-5-----1---------------------|-5-5-5-5-1-1-1-1------------------|
   A       F    D      E           A       F       D       E
[ Tab from: http://www.guitartabs.cc/tabs/m/motorhead/killed_by_death_btab.html ]
Verse
G|----------------------|
D|-----------------5555-|
A|----------------------|
E|-5-5-5-5-5-5-5-5------|
   A               C

Prechorus
G|-----------------|
D|-----------------|
A|-----5---7-7-7-7-|
E|-1---------------|
   F   D   E

Chorus
G|----------------------------------|
D|----------------------------------|
A|-----------------5-5-5-5-77777777-|
E|-5-5-5-5-1-1-1-1------------------|
   A       F       D       E

Solo is chorus

Bridge is chorus with palm muting

Play them in this order:
Intro
Verse x4
Prechorus
Chorus
Verse x4
Prechorus
Chorus x2
Solo x2
Bridge x2
Repeat Chorus -> fadeout

greetz from holland
Comments