Motorhead - Iron Horse Born To Lose Chords & Tabs

 

Iron Horse Born To Lose Chords & Tabs

Motorhead Chords & Tabs

Version: 1 Type: Bass Tab

Iron Horse Born To Lose Bass Tab

   
Motörhead - Born To Lose
by Richmex 

Intro (riff a)
                      x3                  x1 
G|----------------------|-------------------|
D|-------7---7p5---5-7--|-------------------|
A|---0-0---------7------|--6-6-5---6-6-5----|
E|----------------------|--------8-------8--|


Lyrics 
                                      x4
G|-----------------\x-------------------|
D|------------------x-------------------|
A|---0--3--5-----------------7--3--0----|
E|--------------------------------------|

[ Tab from: http://www.guitartabs.cc/tabs/m/motorhead/iron_horse_born_to_lose_btab.html ]
Bridge
                                                                 x1
G|-------------------------------------------------------------------|
D|-------------------------------------------------------------------|
A|---2-22-22-2-22-22-2-22-22-22-4-5-55-55-5-55-5-55-5-55-55-55-------|
E|---------------------------------------------------------------x\--|


Chorus
                      x3                  x1 
G|----------------------|-------------------|
D|-------7---7p5---5-7--|-------------------|
A|---0-0---------7------|--6-6-5---6-6-5----|
E|----------------------|--------8-------8--|


Lyrics 2
Bridge
Chorus


Solo
                 x8
G|----------------|------------------|
D|-------4-3------|--x-33--33--------|
A|--2----------3--|------------------|
E|----------------|------------------|


Lyrics 3
Bridge
Chorus (x3)

Outro
                    x2 
G|-------------------|-----|
D|-------------------|-----|
A|--6-6-5---6-6-5----|--0--|
E|--------8-------8--|-----|