Motorhead - In The Name Of Tragedy Chords & Tabs

 

In The Name Of Tragedy Chords & Tabs

Motorhead Chords & Tabs

Version: 1 Type: Bass Tab 0 ratings
1 star 2 stars 3 stars 4 stars 5 stars
comments

In The Name Of Tragedy Bass Tab

----------------------------------------------|
----------------------------------------------|
-6-6-6-6-6-6-6-6-6-6-6-6-6-6------------------|
----------------------------------------------|

----------------------------------------------|
----------------------------------------------|
-6-6-6-6-6-6-6-6-6---2-0----------------------|
----------------------------------------------|
were you ever lost...
[ Tab from: http://www.guitartabs.cc/tabs/m/motorhead/in_the_name_of_tragedy_btab.html ]
----------------------------------------------|
----------------------------------------------|
-6-6-6-6-6-6-6-6-6--4h5-4---------------------|
----------------------------------------------|
were you ever safe little brother...

----------------------------------------------|
----------------------------------------------|
-3-2-1----------------------------------------|
-------3-2-1----------------------------------|
are you still part of the struggle?

just play the intro for the chorus

right before the solo:
----------------------------------------------|
----------------------------------------------|
----------------------------------------------|
-4--3--1--0-0---------------------------------|

the rest is the same with different words. best song on inferno.
Comments