Motorhead - Go To Hell Chords & Tabs

 

Go To Hell Chords & Tabs

Motorhead Chords & Tabs

Version: 1 Type: Tab 0 ratings
1 star 2 stars 3 stars 4 stars 5 stars
comments

Go To Hell Tab

   
##################################################################################
# This file is the author's own work and represents their interpretation of the  #
# song. You may only use this file for private study, scholarship, or research.  #
##################################################################################

Song: GO TO HELL
Artist: MOTORHEAD
Album: IRON FIST

Tabbed by Paolo Borelli
Version 1.2

Notation: b = full bend         / = slide up            a.h. = artificial
  h = hammer-on         \ = slide down                 harmonic
  p = pull-off          . = palm mute(pm)          t = tapping

Tuning: tune down half step      


RIFF
|----------------------------------------------------------------|
|----------------------------------------------------------------|
|--------------------------------------------11------12----------|
|----------------5-------------5-------------11------12----------|
|--5h7-------------7-------------7-----------9---9-9-10---10-9---|
|------0-0-0-0-0-----0-0-0-0-0-----0-0-0-0-0---------------------|
       PM.......     .........     .........     ...

[ Tab from: http://www.guitartabs.cc/tabs/m/motorhead/go_to_hell_tab.html ]
CHORUS
|----------------------------------------------------------------------|
|----------------------------------------------------------------------|
|----------------------------------------------------------------------|
|--10----------10-9--8--7-----------10----------10-9--8--7-----5-------|
|--10----------10-9--8--7-----------10----------10-9--8--7-----5-------|
|--8-----------8--7--6--5-----------8-----------8--7--6--5-----3-------|


BRIDGE
|--------------------------|
|--------------------------|
|--------------------------|
|-----5---7p5---------4-5--|
|-5h7---7-----7p5-5h7------|
|--------------------------|



***************************************************************************************************************

***************************************************************************************************************



Date: Sat, 28 Dec 1996 20:05:35 +0000
From: Matt Javes 
Subject: CRD: I Am the Sword by Motorhead


                              I Am The Sword

                                Motorhead

A modern Motorhead classic from the album Bastards.
This should actually be a tab, but I can't be bothered to tab 
out the exact rhythm for the chorus.

Tune down to Eb/D# (half a step)

Chords used.
e|--------------------------------------|
B|--------------------------------------|
G|----------------(7)--(9)--(11)--(12)--|
D|-(4)--(7)--(9)---7----9----11----12---|
A|--4----7----9----5----7----9-----10---|
E|--2----5----7-------------------------|
   F#I   A    B    D    E   F#II    G

Riff A
e|----------|
B|----------|
G|----------|
D|----------|
A|------320-|
E|-2202-----|
   ...pm...

Fill A
e|-----------|
B|-----------|
G|---3----2--|
D|-----------|
A|-34---23---|
E|-----------|


Riff A x 7
Fill A


Matt Javes

        matt@redstart.demon.co.uk 

Comments