Motorhead - Born To Raise Hell Chords & Tabs

 

Born To Raise Hell Chords & Tabs

Motorhead Chords & Tabs

Version: 1 Type: Bass Tab 0 ratings
1 star 2 stars 3 stars 4 stars 5 stars
comments

Born To Raise Hell Bass Tab

   
Intro
G|-------|
D|-------|
A|-------|
E|-2-1-0-|

Riff 1
G|-----------------|------------------|
D|-----------------|------------------|
A|-0-0-0-0-0-0-0-0-|-0-0-0-0-0-0-0-0--|
E|-----------------|------------------| 

Verse (x2) 
G|-----------------|------------------|
D|-----------------|------------------|
A|-0-0-0-0-0-0-0-0-|-5-5-5-5-5-5-5-5--|
E|-----------------|------------------| 

Pre-Chorus 
G|-----------------|-------------------|-------------------|
D|-----------------|-------------------|-------------------|
A|-----------------|-------------------|-------------------|
E|-0-0-0-0-0-0-0-0-|-0-0-0-0-0-0-0-0-0-|-0-0-0-0-0-0-0-0-0-|
[ Tab from: http://www.guitartabs.cc/tabs/m/motorhead/born_to_raise_hell_btab.html ]
Chorus
G|-----------------|-----------------|-----------------|------------------|
D|-----------------|-----------------|-----------------|------------------|2X
A|-0-0-0-0-0-0-0-0-|-0-0-0-0-0-0-0-0-|-5-5-5-5-5-5-5-5-|------------------|
E|-----------------|-----------------|-----------------|-3-3-3-3-3-3-3-3--|  

Bridge
G|-----------------|--------------------|
D|-----------------|--------------------|
A|-----------------|--------------------|
E|-0-0-0-0-0-0-0-0-|-0-0-0-0-0-0-0-0-0--|

Rhythm for 1st Solo
              (x4)                      (x2)
G|-----------------|-----------------------------|
D|-----------------|-----------------------------|
A|-5-5-5-5-5-5-5-5-|--0-0-0-0---------3-3-3-3-5--|
E|-----------------|----------3-3-3-3------------|

Solo End
G|------------------------|-----------------|
D|------------------------|-----------------|
A|------------------------|-----------------|
E|-5-5-3-3-3-3-3-3-3-3-3-3|-0-0-0-0-0-0-0-0-|
                                        Stop!

Chorus/Outro
Comments