Motorhead - Bad Woman Chords & Tabs

 

Motorhead Chords & Tabs

Version: 1 Type: Tab 0 ratings
1 star 2 stars 3 stars 4 stars 5 stars
comments

Bad Woman Tab

   
. : palm muting

Tuning: Eb (down half a step).

Verse I
e|-----------------------------------|
B|-----------------------------------|
G|-----------------------------------|
D|-2---4---5---4---5---4---5---4---2-|
A|-0-0-0-0-0-0-0-0-0-0-0-0-0-0-0-0-0-|
E|-----------------------------------|
     .   .   .   .   .   .   .   .

Chorus I
e|------------------------------------|
B|------------------------------------|
G|-9-------7-------9-------7-------75-|
D|-9-------7-------9-------7-------75-|
A|-7-------5-------7-------5-------53-|
E|------------------------------------|

Solo Backing composed of:
Verse I (8 times)
and
e|-------------------------------------------------|
B|-------------------------------------------------|
G|-9-------7-------9-------------------------------|
D|-9-------7-------9-------10-10-10-10-12-12-12-12-|
A|-7-------5-------7--------8--8--8--8-10-10-10-10-|
E|-------------------------------------------------|


Post-solo
e|------------------|
B|------------------|
G|------------------|
D|------------------|
A|-9-9-9-9-9-9-9-9--|
E|-7-7-7-7-7-7-7-7--|
   . . . . . . . . 

Verse II
e|-------------------------------|
B|-------------------------------|
G|-------------------------------|
D|-------------------------------|
A|-9--11---9--11---9--11---9--11-|
E|-7-7-7-7-7-7-7-7-7-7-7-7-7-7-7-|
     .   .   .   .   .   .   .
[ Tab from: http://www.guitartabs.cc/tabs/m/motorhead/bad_woman_tab.html ]
Chorus II
e|-------------------------------------------|
B|-------------------------------------------|
G|-11-------9------11-------9----------------|
D|-11-------9------11-------9-------9-9--9-9-|
A|--9-------7-------9-------7-------7-7--7-7-|
E|-------------------------------------------|

Coda
e|-------------------|
B|-------------------|
G|-9-7------7-5------|
D|-9-7------7-5------|
A|-7-5------5-3------|
E|-------------------|


Lyrics:

Shoot me down, baby look at your move
I know you ain't got a thing to lose
Dancing fool, fight for breath
The way you look you scare a man to death

I can't speak, my heart's on fire
You're the focus of my desire
Can't be real, can't be true
Just like a virgin, make me feel brand new

I know you're a bad, bad woman
Turn around and you'll see me coming
I know you're a bad, bad woman
Good enough for me

Here I come baby watch my smoke
I gotta get you and it ain't no joke
I hope your body ain't telling me lies
You bring a tear to my lying eyes

I wish I could, I wish I might
Get the wish that I wish tonight
Drive me crazy turn me inside out
I gotta have you baby, ain't no doubt

I know you're a bad, bad woman
Turn around and you'll see me coming
I know you're a bad, bad woman
Good enough for me

Give it up baby, let me jump your bones
I'm fired up, and I'm almost grown
I can't believe you want me too
Here I come baby, woop-dee-do

I know you're a bad, bad woman
One look and you set me running
I know you're a bad, bad woman
Good enough for me

I know you're a bad, bad woman
Turn around and you'll see me coming
I know you're a bad, bad woman
Good enough for me
Comments