Motorhead - Ace Of Spades Chords & Tabs

 

Motorhead Chords & Tabs

Version: 10 Type: Tab 0 ratings
1 star 2 stars 3 stars 4 stars 5 stars
comments

Ace Of Spades Tab

   
MOTORHEAD - ACE OF SPADES
ACE OF SPADES

Eb, Bb, Gb, Db, Ab, Eb

Intro - Bass:
                            (Play 4x)
|-----------------------------------|
|-----------------------------------|
|o---------------------------------o|
|o---------------------------------o|
|-----------------------------------|
|-----------------------------------|

MAIN RIFF:
                            (Play 4x)
|-----------------------------------|
|-----------------------------------|
|o---------------------------------o|
|o-----------------9~~---8~~---7~~-o|
|-----------------------------------|
|--0---0--0---0--0-----0-----0------|

VERSE RIFF 1:
|-------------------------------------------------------------------|
|-------------------------------------------------------------------|
|-------------------------------------------------------------------|
|-------------------------------------------------------------------|
|--5~~~~~~~~~~~~~~~~~~~~~~~~~~~~~~-5~~~~~~~~~~~~~~~~~~~~~~~~~~~~~~--|
|--3~~~~~~~~~~~~~~~~~~~~~~~~~~~~~~-3~~~~~~~~~~~~~~~~~~~~~~~~~~~~~~--|


|-------------------------------------------------------------------|
|-------------------------------------------------------------------|
|-------------------------------------------------------------------|
|-------------------------------------------------------------------|
|--5~~~~~~~~~~~~~~~~~~~~~~~~~~~~~~-5~~~~-5~~~~-5~~~~-5~~~~-5~~-5~~--|
|--3~~~~~~~~~~~~~~~~~~~~~~~~~~~~~~-3~~~~-3~~~~-3~~~~-3~~~~-3~~-3~~--|

FILL 1:
|-----------------------------------|
|---10b~r-8~-10-8~--10b~r-8~--------|
|o---------------------------9~~~\-o|
|o---------------------------------o|
|-----------------------------------|
|-----------------------------------|

VERSE RIFF 2:
|-------------------------------------------------------------------|
|-------------------------------------------------------------------|
|-------------------------------------------------------------------|
|--7~~~~~~~~~~~~~~~~~~~~~~~~~~~~~~-5~~~~~~~~~~~~~~~~~~~~~~~~~~~~~~--|
|--5~~~~~~~~~~~~~~~~~~~~~~~~~~~~~~-3~~~~~~~~~~~~~~~~~~~~~~~~~~~~~~--|
|-------------------------------------------------------------------|

FILL 1:
|-----------------------------------|
|---10b~r-8~-10-8~--10b~r-8~--------|
|----------------------------9~~~\--|
|-----------------------------------|
|-----------------------------------|
|-----------------------------------|

VERSE RIFF 2:
|-------------------------------------------------------------------|
|-------------------------------------------------------------------|
|-------------------------------------------------------------------|
|--7~~~~~~~~~~~~~~~~~~~~~~~~~~~~~~-5~~~~~~~~~~~~~~~~~~~~~~~~~~~~~~--|
|--5~~~~~~~~~~~~~~~~~~~~~~~~~~~~~~-3~~~~~~~~~~~~~~~~~~~~~~~~~~~~~~--|
|-------------------------------------------------------------------|

CHORUS:
                            (Play 4x)
|-----------------------------------|
|-----------------------------------|
|o---------------------------------o|
|o-----------------9~~---8~~---7~~-o|
|-----------------------------------|
|--0---0--0---0--0-----0-----0------|

VERSE RIFF 1:
|-------------------------------------------------------------------|
|-------------------------------------------------------------------|
|-------------------------------------------------------------------|
|-------------------------------------------------------------------|
|--5~~~~~~~~~~~~~~~~~~~~~~~~~~~~~~-5~~~~~~~~~~~~~~~~~~~~~~~~~~~~~~--|
|--3~~~~~~~~~~~~~~~~~~~~~~~~~~~~~~-3~~~~~~~~~~~~~~~~~~~~~~~~~~~~~~--|


|-------------------------------------------------------------------|
|-------------------------------------------------------------------|
|-------------------------------------------------------------------|
|-------------------------------------------------------------------|
|--5~~~~~~~~~~~~~~~~~~~~~~~~~~~~~~-5~~~~-5~~~~-5~~~~-5~~~~-5~~-5~~--|
|--3~~~~~~~~~~~~~~~~~~~~~~~~~~~~~~-3~~~~-3~~~~-3~~~~-3~~~~-3~~-3~~--|

FILL 1:
|-----------------------------------|
|---10b~r-8~-10-8~--10b~r-8~--------|
|o---------------------------9~~~\-o|
|o---------------------------------o|
|-----------------------------------|
|-----------------------------------|

VERSE RIFF 2:
|-------------------------------------------------------------------|
|-------------------------------------------------------------------|
|-------------------------------------------------------------------|
|--7~~~~~~~~~~~~~~~~~~~~~~~~~~~~~~-5~~~~~~~~~~~~~~~~~~~~~~~~~~~~~~--|
|--5~~~~~~~~~~~~~~~~~~~~~~~~~~~~~~-3~~~~~~~~~~~~~~~~~~~~~~~~~~~~~~--|
|-------------------------------------------------------------------|

FILL 1:
|-----------------------------------|
|---10b~r-8~-10-8~--10b~r-8~--------|
|----------------------------9~~~\--|
|-----------------------------------|
|-----------------------------------|
|-----------------------------------|

VERSE RIFF 2:
|-------------------------------------------------------------------|
|-------------------------------------------------------------------|
|-------------------------------------------------------------------|
|--7~~~~~~~~~~~~~~~~~~~~~~~~~~~~~~-5~~~~~~~~~~~~~~~~~~~~~~~~~~~~~~--|
|--5~~~~~~~~~~~~~~~~~~~~~~~~~~~~~~-3~~~~~~~~~~~~~~~~~~~~~~~~~~~~~~--|
|-------------------------------------------------------------------|

CHORUS:
|-----------------------------------|
|-----------------------------------|
|o---------------------------------o|
|o-----------------9~~---8~~---7~~-o|
|-----------------------------------|
|--0---0--0---0--0-----0-----0------|

                            (Play 4x)
|-----------------------------------|
|-----------------------------------|
|o---------------------------------o|
|o-----------------9~~---8~~---7~~-o|
|-----------------------------------|
|--0---0--0---0--0-----0-----0------|
   ...............     .     .

BRIDGE:
|-------------------------------------------------------------------|
|-------------------------------------------------------------------|
|-------------------------------------------------------------------|
|--9~~-------------------------7~~-9~~------------------------------|
|--7~~-------------------------5~~-7~~------------------------------|
|-------------------------------------------------------------------|


|-------------------------------------------------------------------|
|-------------------------------------------------------------------|
|-------------------------------------------------------------------|
|----------------------------------9~~-9~~-9~~-9~~-9~~-9~~-9~~-9~~--|
|----------------------------------7~~-7~~-7~~-7~~-7~~-7~~-7~~-7~~--|
|-------------------------------------------------------------------|

[ Tab from: http://www.guitartabs.cc/tabs/m/motorhead/ace_of_spades_tab_ver_10.html ]
|-------------------------------------------------------------------|
|-------------------------------------------------------------------|
|-------------------------------------------------------------------|
|--7~~~~~~~~~~~~~~~~~~~~~~~~~~~~~~~~~~~~~~~~~~~~~~-9~~~~-7~~-5~~~~--|
|--5~~~~~~~~~~~~~~~~~~~~~~~~~~~~~~~~~~~~~~~~~~~~~~-7~~~~-5~~-3~~~~--|
|-------------------------------------------------------------------|


|-------------------------------------------------------------------|
|-------------------------------------------------------------------|
|-------------------------------------------------------------------|
|--4~~~~~~~~~~~~~~~~~~~~~~~~~~~~~~~~~~~~~~~~~~~~~~~~~~~~~~~~~~~~~~--|
|--2~~~~~~~~~~~~~~~~~~~~~~~~~~~~~~~~~~~~~~~~~~~~~~~~~~~~~~~~~~~~~~--|
|-------------------------------------------------------------------|

SOLO - Lead:
|-------------------------------------------------------------------|
|-------------------------------------------------------------------|
|-------------------------------------------------------------------|
|--------------------------------5-7p5---5h7~--7p5--7p5--7p5--7p5---|
|------5h7p5~-3h5p3----3b4----/7-------7----------7----7----7----7--|
|--5h8---------------5----------------------------------------------|


|-------------------------------------------------------------------|
|--------------------------------------------10---------------------|
|-------------------------------------7-9b10~~~~~r9-7h9p7---7/13\\--|
|--7b9--7--5---------5----7-9p7---7h9---------------------9---------|
|-------------7-5h7----/9-------9-----------------------------------|
|-------------------------------------------------------------------|


|-------------------------------------------------------------------|
|/10-10-10-10-10-10-10-10-10-10-10-10-10-10-10-10-10-10-10-11-11-11-|
|/11-11-11-11-11-11-11-11-11-11-11-11-11-11-11-11-11-11-11-12-12-12-|
|-------------------------------------------------------------------|
|-------------------------------------------------------------------|
|-------------------------------------------------------------------|


|-------------------------------------------------------------------|
|-12-12-12-13-13-13--14-14-x-x---13-15b17-15-13h15p13----13~--------|
|-13-13-13-14-14-14--15-15-x-x-x----------------------14------------|
|-------------------------------------------------------------------|
|-------------------------------------------------------------------|
|-------------------------------------------------------------------|


|-------------------------------------------------------------------|
|-----13-15b17p13------12h13p12-------------------------------------|
|-14--------------14~-----------14--12h14p12----12-14b16p12----12~--|
|--------------------------------------------14-------------14------|
|-------------------------------------------------------------------|
|-------------------------------------------------------------------|


|-------------------------|
|-------------------------|
|-------------------------|
|--14--12--10-------------|
|--------------12--10h12--|
|-------------------------|

CHORUS:
                            (Play 4x)
|-----------------------------------|
|-----------------------------------|
|o---------------------------------o|
|o-----------------9~~---8~~---7~~-o|
|-----------------------------------|
|--0---0--0---0--0-----0-----0------|

VERSE RIFF 1:
|-------------------------------------------------------------------|
|-------------------------------------------------------------------|
|-------------------------------------------------------------------|
|-------------------------------------------------------------------|
|--5~~~~~~~~~~~~~~~~~~~~~~~~~~~~~~-5~~~~~~~~~~~~~~~~~~~~~~~~~~~~~~--|
|--3~~~~~~~~~~~~~~~~~~~~~~~~~~~~~~-3~~~~~~~~~~~~~~~~~~~~~~~~~~~~~~--|


|-------------------------------------------------------------------|
|-------------------------------------------------------------------|
|-------------------------------------------------------------------|
|-------------------------------------------------------------------|
|--5~~~~~~~~~~~~~~~~~~~~~~~~~~~~~~-5~~~~-5~~~~-5~~~~-5~~~~-5~~-5~~--|
|--3~~~~~~~~~~~~~~~~~~~~~~~~~~~~~~-3~~~~-3~~~~-3~~~~-3~~~~-3~~-3~~--|

FILL 1:
|-----------------------------------|
|---10b~r-8~-10-8~--10b~r-8~--------|
|o---------------------------9~~~\-o|
|o---------------------------------o|
|-----------------------------------|
|-----------------------------------|

VERSE RIFF 2:
|-------------------------------------------------------------------|
|-------------------------------------------------------------------|
|-------------------------------------------------------------------|
|--7~~~~~~~~~~~~~~~~~~~~~~~~~~~~~~-5~~~~~~~~~~~~~~~~~~~~~~~~~~~~~~--|
|--5~~~~~~~~~~~~~~~~~~~~~~~~~~~~~~-3~~~~~~~~~~~~~~~~~~~~~~~~~~~~~~--|
|-------------------------------------------------------------------|

FILL 1:
|-----------------------------------|
|---10b~r-8~-10-8~--10b~r-8~--------|
|----------------------------9~~~\--|
|-----------------------------------|
|-----------------------------------|
|-----------------------------------|

VERSE RIFF 2:
|-------------------------------------------------------------------|
|-------------------------------------------------------------------|
|-------------------------------------------------------------------|
|--7~~~~~~~~~~~~~~~~~~~~~~~~~~~~~~-5~~~~~~~~~~~~~~~~~~~~~~~~~~~~~~--|
|--5~~~~~~~~~~~~~~~~~~~~~~~~~~~~~~-3~~~~~~~~~~~~~~~~~~~~~~~~~~~~~~--|
|-------------------------------------------------------------------|

CHORUS:
|-----------------------------------|
|-----------------------------------|
|o---------------------------------o|
|o-----------------9~~---8~~---7~~-o|
|-----------------------------------|
|--0---0--0---0--0-----0-----0------|

                            (Play 4x)
|-----------------------------------|
|-----------------------------------|
|o---------------------------------o|
|o-----------------9~~---8~~---7~~-o|
|-----------------------------------|
|--0---0--0---0--0-----0-----0------|
   ...............     .     .

OUTRO:
|-------------------------------------------------------------------|
|-------------------------------------------------------------------|
|o-----------------------------------------------------------------o|
|o-7~~~~~~~~~~~~~~~~~~~~~~~~~~~~~~-5~~~~~~~~~~~~~~~~~~~~~~~~~~~~~~-o|
|--5~~~~~~~~~~~~~~~~~~~~~~~~~~~~~~-3~~~~~~~~~~~~~~~~~~~~~~~~~~~~~~--|
|-------------------------------------------------------------------|
|
|
|-12~~~~~~~~~~~~~~~~~~~~~~~~~~~~~-12~~~~~~~~~~~~~~~~~~~~~~~~~~~~~~--|
|-15^~~~~~~~~~~~~~~~~~~~~~~~~~~~~-15^~~~~~~~~~~~~~~~~~~~~~~~~~~~~~--|
|o-----------------------------------------------------------------o|
|o-----------------------------------------------------------------o|
|-------------------------------------------------------------------|
|-------------------------------------------------------------------|


|-----------------------------------|
|-----------------------------------|
|o---------------------------------o|
|o-9~~~~-7~~~~-9~~~\\\-------------o|
|--7~~~~-5~~~~-7~~~\\\--------------|
|-----------------------------------|
Comments