Motorhead - Ace Of Spades Chords & Tabs

 

Motorhead Chords & Tabs

Version: 8 Type: Bass Tab 0 ratings
1 star 2 stars 3 stars 4 stars 5 stars
comments

Ace Of Spades Bass Tab

   
-------------------------------------------------------------------------------
			     Ace Of Spades - Motörehead
-------------------------------------------------------------------------------

Tabbed By : Stéph
e-mail: stephcl33@hotmail.fr

Tuning: E A D G

Intro :

G|--------------------|--------------------|--------------------|--------------------|
D|--------------------|--------------------|--------------------|--------------------|
A|-6--6-6--6666-6-6-4-|-6--6-6--6666-6-6-4-|-6--6-6--6666-6-6-4-|-6--6-6-6/18\-------|
E|--------------------|--------------------|--------------------|--------------------|
                                                       don't slide too slowly
Riff :

G|--------------------|
D|--------------------|
A|-6--6-6--6666-6-6-4-| x4
E|--------------------|

Verse 1 :

G|-6~-----------------|     G|-6--6-6--6-6---|
D|-4--4-4--4444-4-4-4-|     D|-4--4-4--4-4---|
A|--------------------| x3  A|---------------|
E|--------------------|     E|---------------|

Riff :

G|--------------------|
D|--------------------|
A|-6--6-6--6666-6-6-4-| x4
E|--------------------|

Verse 2 :

G|--------------------|--------------------|
D|-6~-----------------|-4~-----------------|
A|-4--4-4--4444-4-4-4-|-2--2-2--2222-2-2-2-|
E|--------------------|--------------------|

Riff :

G|--------------------|
D|--------------------|
A|-6--6-6--6666-6-6-4-| x2
E|--------------------|

Verse 2 :

G|--------------------|--------------------|
D|-6~-----------------|-4~-----------------|
A|-4--4-4--4444-4-4-4-|-2--2-2--2222-2-2-2-|
E|--------------------|--------------------|

Riff ( Chorus ) :

G|--------------------|
D|--------------------|
A|-6--6-6--6666-6-6-4-| x4
E|--------------------|

Verse 1 :

G|-6~-----------------|     G|-6--6-6--6-6---|
D|-4--4-4--4444-4-4-4-|     D|-4--4-4--4-4---|
A|--------------------| x3  A|---------------|
E|--------------------|     E|---------------|

Riff :

G|--------------------|
D|--------------------|
A|-6--6-6--6666-6-6-4-| x4
E|--------------------|

Verse 2 :

G|--------------------|--------------------|
D|-6~-----------------|-4~-----------------|
A|-4--4-4--4444-4-4-4-|-2--2-2--2222-2-2-2-|
E|--------------------|--------------------|

Riff :

G|--------------------|
D|--------------------|
A|-6--6-6--6666-6-6-4-| x2
E|--------------------|

Verse 2 :

G|--------------------|--------------------|
D|-6~-----------------|-4~-----------------|
A|-4--4-4--4444-4-4-4-|-2--2-2--2222-2-2-2-|
E|--------------------|--------------------|

Riff ( Chorus ) :

G|--------------------|
D|--------------------|
A|-6--6-6--6666-6-6-4-| x6
E|--------------------|

Bridge :

You know i'm born to lose,...
G|-------------------|------------------|
D|-8--------------6--|-8----------------|
A|-6--------------4--|-6----------------|
E|-------------------|------------------|
[ Tab from: http://www.guitartabs.cc/tabs/m/motorhead/ace_of_spades_btab_ver_8.html ]
G|-------------------|------------------|
D|-------------------|-8-8-8-8-8-8-8-8--|
A|-------------------|-6-6-6-6-6-6-6-6--|
E|-------------------|------------------|

G|-------------------|-------------------|
D|-------------------|-------------------|
A|-4-4-44-4-4-44-4-4-|-4-4-44-4-4-6-4-2--| You'll get the rythm easily.
E|-------------------|-------------------|

G|-------------------|-------------------| 
D|-------------------|-------------------|
A|-11-11-1-1-11-1-1--|-11-11-1-1-11-1-1--|
E|-------------------|-------------------|

Solo :

G|-8-8-88-8-8-88-8-8-|      G|-8-8-8-88-8-|
D|-6-6-66-6-6-66-6-6-|      D|-6-6-6-66-6-|
A|-------------------| x3   A|------------|
E|-------------------|      E|------------|

G|-10-10-1010-10-10-1010-10-10-|      G|-10-10-10-1010-10-|
D|-8--8--8-8--8--8--8-8--8--8--|      D|-8--8--8--8-8--8--|
A|-----------------------------| x3   A|------------------|
E|-----------------------------|      E|------------------|

G|-8-8-88-8-8-88-8-8-|      G|-8-8-8-88-8-|
D|-6-6-66-6-6-66-6-6-|      D|-6-6-6-66-6-|
A|-------------------| x3   A|------------|
E|-------------------|      E|------------|

Riff :

G|--------------------|
D|--------------------|
A|-6--6-6--6666-6-6-4-| x4
E|--------------------|

Verse 1 :

G|-6~-----------------|     G|-6--6-6--6-6---|
D|-4--4-4--4444-4-4-4-|     D|-4--4-4--4-4---|
A|--------------------| x3  A|---------------|
E|--------------------|     E|---------------|

Riff :

G|--------------------|
D|--------------------|
A|-6--6-6--6666-6-6-4-| x4
E|--------------------|

Verse 2 :

G|--------------------|--------------------|
D|-6~-----------------|-4~-----------------|
A|-4--4-4--4444-4-4-4-|-2--2-2--2222-2-2-2-|
E|--------------------|--------------------|

Riff :

G|--------------------|
D|--------------------|
A|-6--6-6--6666-6-6-4-| x2
E|--------------------|

Verse 2 :

G|--------------------|--------------------|
D|-6~-----------------|-4~-----------------|
A|-4--4-4--4444-4-4-4-|-2--2-2--2222-2-2-2-|
E|--------------------|--------------------|


Riff :

G|--------------------|
D|--------------------|
A|-6--6-6--6666-6-6-4-| x6
E|--------------------|

Outro :

G|--------------------|--------------------|--------------------|--------------------|
D|-6~-----------------|-4~-----------------|-6~-----------------|-4~-----------------|
A|-4~-----------------|-2~-----------------|-4~-----------------|-2~-----------------|
E|--------------------|--------------------|--------------------|--------------------|

G|--------------------|--------------------|
D|-8-6-8--------------|-8-6-8--------------|
A|-6-4-6--------------|-6-4-6--------------|
E|--------------------|--------------------|

That's how I play this amazing song, hope you like it !


| /  slide up
| \  slide down
| h  hammer-on
| p  pull-off
| ~  let ring
| +  harmonic
| x  Mute note
===============================================================================
Comments