Motorhead - 1916 Chords & Tabs

 

Motorhead Chords & Tabs

Version: 1 Type: Bass Tab 0 ratings
1 star 2 stars 3 stars 4 stars 5 stars
comments

1916 Bass Tab

Song: 1916
Artist:Motorhead
Album:1916
Tuning: Standard
Bassist:Lemmy Kilmiester

Main Riff
|----------------------------|
|----------------------------|
|-0-------------5------------|
|-------0--------------5-----|
[ Tab from: http://www.guitartabs.cc/tabs/m/motorhead/1916_btab.html ]
Variation 
|------------------------------------------------|
|---------------------------0-0------------------|
|-0-0-------------------------------3\2-----0-0--|
|--------3\2---0-0-------------------------------|

Fill
|----------------------|
|----------------------|
|-0-0-0-0-0-0-0-0-0-0--|
|----------------------|

Comments