Motograter - Down Chords & Tabs

 

Down Chords & Tabs

Motograter Chords & Tabs

Version: 2 Type: Tab 0 ratings
1 star 2 stars 3 stars 4 stars 5 stars
comments

Down Tab

   
Band: Motograter
Album: Motograter
Song: Down
Tuning:CGCFAD

Riff A
-------------------------------------------------
-------------------------------------------------
-0-0-2-2-3-3-2-2-0-2-2-2-2-2-2-2-----------------
-------------------------------------------------
-------------------------------------------------
-------------------------------------------------

Riff B
-------------------------------------------------
-------------------------------------------------
-------------------------------------------------
-------------------------------------------------
-3-5-3-------------------------------------------
-3-5-3-------------------------------------------

Riff C GTR. 1
-------------------------------------------------
-------------------------------------------------
-------------------------------------------------
-------------------------------------------------
-0-0-0-0-----------------------------------------
-0-0-0-0-----------------------------------------
[ Tab from: http://www.guitartabs.cc/tabs/m/motograter/down_tab_ver_2.html ]
Riff C GTR. 2
-------------------------------------------------
-5-6-6-5-5-6-6-5-5-8-8-8-8-5-6-6-5-5-6-6-5-3-----
-------------------------------------------------
-------------------------------------------------
-------------------------------------------------
-------------------------------------------------

Riff D 
-------------------------------------------------
-------------------------------------------------
-------------------------------------------------
-------------------------------------------------
-3-5-3-0-0-0-0-----------------------------------
-3-5-3-0-0-0-0-----------------------------------
      |________|
         P.M.
Riff D 1st Time Only
-0-3-0-3-----------------------------------------
-------------------------------------------------
-------------------------------------------------
-------------------------------------------------
-------------------------------------------------
-------------------------------------------------


Motograter-Unknown, ass kicking
flipout121@go.com-My e-mail address
intoallrock-Who I am
Comments