Motograter - Down Chords & Tabs

 

Down Chords & Tabs

Motograter Chords & Tabs

Version: 1 Type: Tab 0 ratings
1 star 2 stars 3 stars 4 stars 5 stars
comments

Down Tab

   
TUNING: Drop D and down 1 step (C G C F A D) 

Riff 1: 
D|----------------------------------| For this intro, it's playing fifths and manipulating 
A|--------------3-------------------| them using ProTools (I assume). Using a guitar with 
F|----------------------------------| Les Paul style pickups, turn your desired pickup for 
C|--2-----3-2-0-------2---3-2-0-----| the song all the way up and the other all the way down. 
G|----------------------------------| Then use the toggle switch to turn your guitar "on" or 
C|----------------------------------| "off". Tap each note out with your left hand and flip 
TA - - - - - - - - - - - - - - - - the toggle switch with your right. This style was 
TP - - - - - - - - - - - - - - - popularized by Tom Morello (Rage Against The Machine) 
AP=Active Pickup (The On-Pickup) 
PP=Passive Pickup (The Off-Pickup) 

Riff 2: 
D|---------------------| 
A|---------------------| 
F|---------------------| 
C|--2-3-0----2-3-2-----| 
G|--2-3-0----2-3-2-----| 
C|--2-3-0----2-3-2-----| 
[ Tab from: http://www.guitartabs.cc/tabs/m/motograter/down_tab.html ]
Riff 3: 
D|--------------------------------------------------| 
A|--------------------------------------------------| 
F|---------5p4-5p4-5p4-5p4-5p4----------------------| P=Pull Off 
C|--2-3-0-----------------------2-3-2--xx-xx-xx-xx--| x=Mute 
G|--2-3-0-----------------------2-3-2--xx-xx-xx-xx--| 
C|--2-3-0-----------------------2-3-2--xx-xx-xx-xx--| 

Riff 4: 
D|-------| 
A|-------| 
F|-------| PM=Palm Mute 
C|--2-2--| 
G|--2-2--| 
C|--2-2--| 
PM - - 

Riff 5: 
D|---------------------------------------------------------------------| 
A|--6p5-5-6p5-5-6p5-5-6p5-5-6-5-6h8-6---6p5-5-6p5-5-6p5-5-3-3-3-3-3-3--| 
F|---------------------------------------------------------------------| 
C|---------------------------------------------------------------------| 
G|---------------------------------------------------------------------| 
C|---------------------------------------------------------------------| 

Riff 6: 
D|-----------------------| 
A|-----------------------| 
F|-----------------------| 
C|--2-2-2-3---2-2-2-3-3--| 
G|--2-2-2-3---2-2-2-3-3--| 
C|--2-2-2-3---2-2-2-3-3--| 

Riff 2: 
D|-----------------4-5-4-5-4h5p4p0--------------------| 
A|----------------------------------------------------| 
F|----------------------------------------------------| H=Hammer On 
C|--2-3-0----2-2--------------------2-3-2----2-2--2-2-| 
G|--2-3-0----2-2--------------------2-3-2----2-2--2-2-| 
C|--2-3-0----2-2--------------------2-3-2----2-2--2-2-| 
PM - - - - - - 
Comments