Motley Crue - Wild Side Chords & Tabs

 

Wild Side Chords & Tabs

Motley Crue Chords & Tabs

Version: 4 Type: Tab 0 ratings
1 star 2 stars 3 stars 4 stars 5 stars
comments

Wild Side Tab

Motley Crue - Wild Side

what can i say one of the crue's classics

Tabbed by edbert
Email: mac3214@comcast.net
AIM:   mac02546

feel free to e-mail or im with any comments

Standard Tuning

song starts with a distorted really low G or A, then using whammy or a pedal
to bend up to the first note (A#)

intro/chorus
e|---------------------------------------------------------------------------|
B|-----------------------------------------------6--6-5---(5-4-6-5-4-0)------|
G|--3--3-2-0x---3-xx-3-xx-3-5-(p0)----3--3-2-0---5--5-5----------------------|
D|--3--3-2-0x---3-xx-3-xx-3-5-(p0)----3--3-2-0---5--5-5----------------------|
A|---------------------------------------------------------------------------|
E|---------------------------------------------------------------------------|


interlude
e|---------------------------------------------------------------------------|
B|---------------------------------------------------------------------------|
G|---------------------------------------------------------------------------|
D|---------------------------------------------------------------------------|
A|---------------------------------------------------------------------------|
E|--3-3-3-3-3-3-3-3-3-3-3-3-3-3-3-3------------------------------------------|
p.m.

verse
e|---------------------------------------------------------------------------|
B|--8----6----8----6----6----5----8----6-------------------------------------|
G|--7----5----7----5----5----4----7----5-------------------------------------|
D|--5----3----5----3----3----2----5----3-------------------------------------|
A|---------------------------------------------------------------------------|
E|---------------------------------------------------------------------------|


interlude 2
e|---------------------------------------------------------------------------|
B|--6--6-5-------------------------------------------------------------------|
G|--5--5-5----3--------------------------------------------------------------|
D|--5--5-5----3--------------------------------------------------------------|
A|---------------------------------------------------------------------------|
E|---------------------------------------------------------------------------|
[ Tab from: http://www.guitartabs.cc/tabs/m/motley_crue/wild_side_tab_ver_4.html ]
chorus 2
e|---------------------------------------------------------------------------|
B|---------------------------------------------------------------------------|
G|-(0)-3--5----0---0---(0)-5--3----0---0---(0)-3--0----0---0----3--0---0---0-|
D|-(0)-3--5----0---0---(0)-5--3----0---0---(0)-3--0----0---0----3--0---0---0-|
A|---------------------------------------------------------------------------|
E|---------------------------------------------------------------------------|
last time:
e|---------------------------------------------------------------------------|
B|---------------------------------------------------------------------------|
G|-(0)-3--5----0---0---(0)-5--3----0---0---(0)-3--0--------------------------|
D|-(0)-3--5----0---0---(0)-5--3----0---0---(0)-3--0--------------------------|
A|---------------------------------------------------------------------------|
E|---------------------------------------------------------------------------|

this bend is thrown in every couple times in the above part
try the slide to get the right sound
e|---------------------------------------------------------------------------|
B|---------------------------------------------------------------------------|
G|---/11b12------------------------------------------------------------------|
D|---------------------------------------------------------------------------|
A|---------------------------------------------------------------------------|
E|---------------------------------------------------------------------------|

these low and high G's are also thrown in with a whammy bar effect
e|---------------------------------------------------------------------------|
B|---------------------------------------------------------------------------|
G|-------------------/12~\---------------------------------------------------|
D|-------------------/12~\---------------------------------------------------|
A|---5~----------------------------------------------------------------------|
E|---3~----------------------------------------------------------------------|


Order:
intro/chorus	4x
interlude
verse		2x
intro/chorus	2x
interlude
verse		2x
intro/chorus	2x
interlude 2
chorus 2	4x
intro/chorus	4x
interlude
verse		2x
intro/chorus	2x
interlude (+ 2nd half of intro/chorus)	2x
1st half of intro/chorus 3x
full intro/chorus 1x
interlude 2
chorus 2	8x, fade out
Comments