Motley Crue - Too Fast For Love Chords & Tabs

 

Too Fast For Love Chords & Tabs

Motley Crue Chords & Tabs

Version: 5 Type: Bass Tab

Too Fast For Love Bass Tab

Band: Motley Crue
Song: Too Fast For Love
Album: Too Fast For Love
Bass: Nikki Sixx
Tabbed by BIG TOMMY P
I would like to thank valkeyrie3@hotmail.com, I got
most of this from that tab. This will shit on every other
bass tab of this song.

Words and Music by Nikki Sixx

Intro 1: (x1)

F|----------------------------------------------------------------|
C|----------------------------------------------------------------|
G|-55555555-55555555-55555555-------------------------------------|
D|----------------------------55555555----------------------------|

Intro 2: (x2)

F|------------------------------------------------------|
C|------------------------------------------------------|
G|-0--2-0-3--0-4--0-5-0-6h7-6h7-------------------------|
D|------------------------------------------------------|

Intro 3: (x2)

F|------------------------------------------------------|
C|------------------------------------------------------|
G|------------------------------------------------------|
D|-0--2-0-3--0-4--0-5-0-6h7-6h7-------------------------|

Intro 2 (x2)

Verse: (x1)
[ Tab from: http://www.guitartabs.cc/tabs/m/motley_crue/too_fast_for_love_btab_ver_5.html ]
F|---------------------------------------------------------------------------|
C|---------------------------------------------------------------------------|
G|77777-77777-77777-77777-77777-77777-------------00000-00000-77777-77777----|
D|------------------------------------44444-44444----------------------------|

Intro 2 (x2)
Verse (x1)
Intro 2 (x2)

Chorus 1: (x1)

F|-----------------------------------------|
C|-----------------------------------------|
G|-22222222-22222222-00000000-00000000-----|
D|-----------------------------------------|


Chorus 2: (x1)

F|--------------------------------------------------------|
C|--------------------------------------------------------|
G|-77777777-77777775-55-44-22-00------------0-1-2---------|
D|--------------------------------33-22-00----------------|

Chorus 1 (x1)

Chorus 3: (x1)

F|----------------------------------------------------------------|
C|----------------------------------------------------------------|
G|-77777777-77777777-5--------------------------------------------|
D|----------------------------------------------------------------|

Intro 2 (x2)
Verse (x1)
Intro 2 (x2)
Chorus 1 (x1)
Chorus 2 (x1)
Chorus 1 (x1)
Chorus 3 (x1)

Bass Solo: (x1)

F|----7-----8-----9-----10----11---------------------------------|
C|---------------------------------------------------------------|
G|-5----6-----7-----8------9------0-1-2--------------------------|
D|---------------------------------------------------------------|

Chorus 1 (x1)
Chorus 3 (x1)
Chorus 1 (x1)
Chorus 3 (x1)
Chorus 1 (x1)

Thatís it. A damn good tab if you ask me.