Motley Crue - Toast Of The Town Chords & Tabs

 

Toast Of The Town Chords & Tabs

Motley Crue Chords & Tabs

Version: 1 Type: Tab 0 ratings
1 star 2 stars 3 stars 4 stars 5 stars
comments

Toast Of The Town Tab

toast of the town
motley crue

PM- palm mute
/- dive with bar
~- let ring
h- hammer on

d tuning- dafcgd
intro
                                                    PM----|
d-------------------------------------------------------------------------|
a---------------8-7----------------8-7----------------------------8-7-----|
f---------------7-7----------------7-7----------------------------7-7-----|
c-----------7~--7-7------------7~--7-7------------7-7-7-7-7-------7-7-----|
g--2--------7~--------2--------7~--------2--------7-7-7-7-7--0-\\\\/------|
d--0--2--3--5~--------0--2--3--5~--------0--2--3--5-5-5-5-5---------------|

              PM----|
d--------------------------|
a----------------------8-7-|
f----------------------7-7-|
c-----------7-7-7-7-7--7-7-|
g--2--------7-7-7-7-7------|
d--0--2--3--5-5-5-5-5------|

verse
d-------------------------------------------------------------------------|
a-------------------------------------------------------------------------|
f-------------------------------------------------------------------------|
c-----------7-7-7-7--2-2-2-2--7-7-7-7--2-2-2-2-----------7-7-7-7--2-2-2-2-|
g--2--------7-7-7-7--2-2-2-2--7-7-7-7--2-2-2-2--2--------7-7-7-7--2-2-2-2-|
d--0--2--3--5-5-5-5--0-0-0-0--5-5-5-5--0-0-0-0--0--2--3--5-5-5-5--0-0-0-0-|

d------------------|
a------------------|
f------------------|
c--4-4-4-4-4-4-4-4-|
g--4-4-4-4-4-4-4-4-|
d--2-2-2-2-2-2-2-2-|

pre chorus
d--------------------------------------------------------|
a--------------------------------------------------------|
f------------------------9-9-------------------------9-9-|
c--12-12--11--9--7--2-2--9-9---12-12--11--9--7--2-2--9-9-|
g--12-12--11--9--7--2-2--7-7---12-12--11--9--7--2-2--7-7-|
d--10-10--9---7--5--0-0--------10-10--9---7--5--0-0------|

d-----------------------------------|
a-----------------------------------|
f-----------------------------------|
c--12-12--11--9--7--2-2-2-2-2-2-2-2-|
g--12-12--11--9--7--2-2-2-2-2-2-2-2-|
d--10-10--9---7--5--0-0-0-0-0-0-0-0-|


chorus
               PM----|
d------------------------------------------------|
a------------------------------------------------|
f--2-2---9--7--7-7-7-7---11-11-------------------|
c--2-2---9--7--7-7-7-7---11-11--12--14-14--16-16-|
g--0-0---7--5--5-5-5-5---9--9---12--14-14--16-16-|
d-------------------------------10--12-12--14-14-|

               PM----|
d-----------------------------------------|
a-----------------------------------------|
f--2-2---9--7--7-7-7-7---11-11------------|
c--2-2---9--7--7-7-7-7---11-11--12--14-14-|
g--0-0---7--5--5-5-5-5---9--9---12--14-14-|
d-------------------------------10--12-12-|

intro again                       PM---|
d---------------------------------------------|
a---------------8-7-----------------------8-7-|
f---------------7-7-----------------------7-7-|
c-----------7~--7-7------------7-7-7-7-7--7-7-|
g--2--------7~--------2--------7-7-7-7-7------|
d--0--2--3--5~--------0--2--3--5-5-5-5-5------|

verse
d-------------------------------------------------------------------------|
a-------------------------------------------------------------------------|
f-------------------------------------------------------------------------|
c-----------7-7-7-7--2-2-2-2--7-7-7-7--2-2-2-2-----------7-7-7-7--2-2-2-2-|
g--2--------7-7-7-7--2-2-2-2--7-7-7-7--2-2-2-2--2--------7-7-7-7--2-2-2-2-|
d--0--2--3--5-5-5-5--0-0-0-0--5-5-5-5--0-0-0-0--0--2--3--5-5-5-5--0-0-0-0-|

d------------------|
a------------------|
f------------------|
c--4-4-4-4-4-4-4-4-|
g--4-4-4-4-4-4-4-4-|
d--2-2-2-2-2-2-2-2-|

pre chorus
d--------------------------------------------------------|
a--------------------------------------------------------|
f------------------------9-9-------------------------9-9-|
c--12-12--11--9--7--2-2--9-9---12-12--11--9--7--2-2--9-9-|
g--12-12--11--9--7--2-2--7-7---12-12--11--9--7--2-2--7-7-|
d--10-10--9---7--5--0-0--------10-10--9---7--5--0-0------|

d-----------------------------------|
a-----------------------------------|
f-----------------------------------|
c--12-12--11--9--7--2-2-2-2-2-2-2-2-|
g--12-12--11--9--7--2-2-2-2-2-2-2-2-|
d--10-10--9---7--5--0-0-0-0-0-0-0-0-|

chorus
               PM----|
d------------------------------------------------|
a------------------------------------------------|
f--2-2---9--7--7-7-7-7---11-11-------------------|
c--2-2---9--7--7-7-7-7---11-11--12--14-14--16-16-|
g--0-0---7--5--5-5-5-5---9--9---12--14-14--16-16-|
d-------------------------------10--12-12--14-14-|
[ Tab from: http://www.guitartabs.cc/tabs/m/motley_crue/toast_of_the_town_tab.html ]
               PM----|
d---------------------------------------------|
a---------------------------------------------|
f--2-2---9--7--7-7-7-7---11-11----------------|
c--2-2---9--7--7-7-7-7---11-11--12--14-14--16-|
g--0-0---7--5--5-5-5-5---9--9---12--14-14--16-|
d-------------------------------10--12-12--14-|

interlude
d----------------------------------------------|
a----------------------------------------------|
f--2-2--5-5-------------2-2--5-5-------7-7-----|
c--2-2--5-5--5-5--------2-2--5-5--5-5--7-7-----|
g--0-0--3-3--5-5--0-\\\\/--0-0--3-3--5-5--5-5--|
d------------3-3------------------3-3----------|

d--------------------------------------------------------------|
a--------------------------------------------------------------|
f--2-2--5-5-------12h14h15-15h17h18-17h19h20----5-5------------|
c--2-2--5-5--5-5--------------------------------5-5--2--5--7-7-|
g--0-0--3-3--5-5--------------------------------3-3--2--5--7-7-|
d------------3-3-------------------------------------0--3--5-5-|

d------------------------|
a------------------------|
f------------------------|
c--2-5-7---2-5-7---2-5-7-|
g--2-5-7---2-5-7---2-5-7-|
d--0-3-5---0-3-5---0-3-5-|

   PM----|
d-------------------|
a-------------------|
f-------------------|
c--2-2-2-2--2-2-2-2-|
g--2-2-2-2--2-2-2-2-|
d--0-0-0-0--0-0-0-0-|


SOLO- chorus played underneath


chorus- under solo
               PM----|
d-------------------------------------------------|
a-------------------------------------------------|
f--2-2---9--7--7-7-7-7---11-11--------------------|
c--2-2---9--7--7-7-7-7---11-11---12--14-14--16-16-|
g--0-0---7--5--5-5-5-5---9--9----12--14-14--16-16-|
d--------------------------------10--12-12--14-14-|

               PM----|
d-------------------------------------------------|
a-------------------------------------------------|
f--2-2---9--7--7-7-7-7---11-11--------------------|
c--2-2---9--7--7-7-7-7---11-11---12--14-14--16-16-|
g--0-0---7--5--5-5-5-5---9--9----12--14-14--16-16-|
d--------------------------------10--12-12--14-14-|

               PM----|
d------------------------------------------------|
a------------------------------------------------|
f--2-2---9--7--7-7-7-7---11-11-------------------|
c--2-2---9--7--7-7-7-7---11-11--12--14-14--16-16-|
g--0-0---7--5--5-5-5-5---9--9---12--14-14--16-16-|
d-------------------------------10--12-12--14-14-|

               PM----|
d------------------------------------------------|
a------------------------------------------------|
f--2-2---9--7--7-7-7-7---11-11-------------------|
c--2-2---9--7--7-7-7-7---11-11--12--14-14--16-16-|
g--0-0---7--5--5-5-5-5---9--9---12--14-14--16-16-|
d-------------------------------10--12-12--14-14-|


outro chorus

                 PM----|
d------------------------------------------------------|
a------------------------------------------------------|
f--2-2-2---9--7--7-7-7-7---11-11-11--------------------|
c--2-2-2---9--7--7-7-7-7---11-11-11---12--14-14--16-16-|
g--0-0-0---7--5--5-5-5-5---9--9--9----12--14-14--16-16-|
d-------------------------------------10--12-12--14-14-|

                 PM----|
d------------------------------------------------------|
a------------------------------------------------------|
f--2-2-2---9--7--7-7-7-7---11-11-11--------------------|
c--2-2-2---9--7--7-7-7-7---11-11-11---12--14-14--16-16-|
g--0-0-0---7--5--5-5-5-5---9--9--9----12--14-14--16-16-|
d-------------------------------------10--12-12--14-14-|

               PM----|
d------------------------------------------------|
a------------------------------------------------|
f--2-2---9--7--7-7-7-7---11-11-------------------|
c--2-2---9--7--7-7-7-7---11-11--12--14-14--16-16-|
g--0-0---7--5--5-5-5-5---9--9---12--14-14--16-16-|
d-------------------------------10--12-12--14-14-|

               PM----|
d------------------------------------------------|
a------------------------------------------------|
f--2-2---9--7--7-7-7-7---11-11-------------------|
c--2-2---9--7--7-7-7-7---11-11--12--14-14--16-16-|
g--0-0---7--5--5-5-5-5---9--9---12--14-14--16-16-|
d-------------------------------10--12-12--14-14-|

               PM----|
d------------------------------------------------|
a------------------------------------------------|
f--2-2---9--7--7-7-7-7---11-11-------------------|
c--2-2---9--7--7-7-7-7---11-11--12--14-14--16-16-|
g--0-0---7--5--5-5-5-5---9--9---12--14-14--16-16-|
d-------------------------------10--12-12--14-14-|

               PM----|
d-----------------------------------------|
a-----------------------------------------|
f--2-2---9--7--7-7-7-7---11-11------------|
c--2-2---9--7--7-7-7-7---11-11--12--14-14-|
g--0-0---7--5--5-5-5-5---9--9---12--14-14-|
d-------------------------------10--12-12-|

                                 PM-----|
d----------------------------------------|
a---------------8-7----------------------|
f---------------7-7----------------------|
c-----------7~--7-7------------7-7-7-7-7-|
g--2--------7~--------2--------7-7-7-7-7-|
d--0--2--3--5~--------0--2--3--5-5-5-5-5-|
Comments