Motley Crue - Toast Of The Town Chords & Tabs

 

Toast Of The Town Chords & Tabs

Motley Crue Chords & Tabs

Version: 1 Type: Bass Tab 0 ratings
1 star 2 stars 3 stars 4 stars 5 stars
comments

Toast Of The Town Bass Tab

   
Band- Motlewy Crue
Song- Toast Of The Town

Tuning: Standard (E A D G)



Intro:           2x                 2x
G|-----------------||-----------------||
D|------32-------32||-------------32--||
A|-----------------||-----------------||
E|0123~~---0123~~--||-0123-3-0-13~----||

Verse:             3x(i think)
G|-------------------||--------------------||
D|-------------------||--------------------||
A|--------5-5-5------||--------------------||
E|3-3-3-3-------0-12-||0000-0000-0000-0000-||

Pre-Chorus:        2x                     2x
G|-------------------||---------------------||
D|-------------------||---------------------||
A|33-2-0----5555-5555||33-2-0----3333-3333--||
E|--------3----------||--------3------------||
[ Tab from: http://www.guitartabs.cc/tabs/m/motley_crue/toast_of_the_town_btab.html ]
Chorus:                         2x
G|--------------------------------||
D|--------------------------------||
A|----5-3-3-33--7-7-0-5-5-5-------||
E|3-3------------------------0-12-||

Verse(3x)
Pre-horus(1x)
Chorus(2x)

Bridge:                      2x
G|--------|----|---------------||
D|--------|----|---------------||
A|---11---|rest|---11----33----||
E|33----33|----|33----33-------||

Bass Fill(bridge continued):
G|------7-----5----4-----------||
D|-0000---000---00---00-57-----||
A|-----------------------------||
E|-----------------------------||

Bass fill(Before guitar solo):
G|--------------------------------||
D|--------10-------------12-------||
A|3333-12----12--5555-14----14----||
E|--------------------------------||

In the solo do the Chorus and after you play it till the end.
Comments