Motley Crue - Starry Eyes Chords & Tabs

 

Starry Eyes Chords & Tabs

Motley Crue Chords & Tabs

Version: 1 Type: Tab 0 ratings
1 star 2 stars 3 stars 4 stars 5 stars
comments

Starry Eyes Tab

Drop one whole step (D)
This is my third Motley tab.. please check out the others as well!
The timming is not exact but it should give you an idea.
Intro (riff 1) (Heavy Distrortion)
|--------------------------------------------------------------------|
|-9-------9---9---9---9---9---9---7-----7---7---7---7---7---7----9---|
|-9-------9---9---9---9---9---9---7-----7---7---7---7---7---7----9---|
|-9-------9---9---9---9---9---9---7-----7---7---7---7---7---7----9---|
|-7--7-7--7---7---7---7---7---7---5-5-5-5---5---5---5---5---5----7---|
|--------------------------------------------------------------------|

|---------------------------------------------------------------------|
|-----9---9---9---9---9---9---9---7------7---7---7---7---7---7---9----|
|-----9---9---9---9---9---9---9---7------7---7---7---7---7---7---9----|
|-----9---9---9---9---9---9---9---7------7---7---7---7---7---7---9----|
|-7-7-7---7---7---7---7---7---7---5--5-5-5---5---5---5---5---5---7----|
|---------------------------------------------------------------------|
Verse 1 (Riff 2)
|-----------------------------------------------------------------------|
|-9---9---9---7----7---7---7---9-----9---9---9---7-----7---7---7---9----|
|-9---9---9---7----7---7---7---9-----9---9---9---7-----7---7---7---9----|
|-9---9---9---7----7---7---7---9-----9---9---9---7-----7---7---7---9----|
|-7---7---7---5----5---5---5---7-----7---7---7---5-----5---5---5---7----|
|-----------------------------------------------------------------------|
                                         PM:----------------------------|
|-----------------------------------------------------------------------|
|-9---9---9---7----7---7---7---9----9---9---9---7-----------------------|
|-9---9---9---7----7---7---7---9----9---9---9---7-----------------------|
|-9---9---9---7----7---7---7---9----9---9---9---7---------7-7-7-7-7-7---|
|-7---7---7---5----5---5---5---7----7---7---7---5--X/////-5-5-5-5-5-5---|
|-----------------------------------------------------------------------|
Chorus (riff 3)
|--------------------------------------------------------------------|
|--------------------------------------------------------------------|
|----------------------5------------------------------5--------------|
|-7--5--7--5--7--5--7--3--5--7---5--7---5--7--5---7---3--5-----------|
|-5--3--5--3--5--3--5-----3--5---3--5---3--5--3---7------3-----------|
|--------------------------------------------------------------------|
riff 1
|--------------------------------------------------------------------|
|-9------9---9---9---9---9---9----7-----7---7---7---7---7---7----9---|
|-9------9---9---9---9---9---9----7-----7---7---7---7---7---7----9---|
|-9------9---9---9---9---9---9----7-----7---7---7---7---7---7----9---|
|-7--7---7---7---7---7---7---7----5-5-5-5---5---5---5---5---5----7---|
|--------------------------------------------------------------------|
[ Tab from: http://www.guitartabs.cc/tabs/m/motley_crue/starry_eyes_tab.html ]
|--------------------------------------------------------------------|
|-----9-----9---9---9---9---9---9---7-----7---7---7---7---7---7---9--|
|-----9-----9---9---9---9---9---9---7-----7---7---7---7---7---7---9--|
|-----9-----9---9---9---9---9---9---7-----7---7---7---7---7---7---9--|
|-7-7-7-----7---7---7---7---7---7---5-5-5-5---5---5---5---5---5---7--|
|--------------------------------------------------------------------|
Verse 2 (riff 2)
|----------------------------------------------------------------------|
|-9---9---9---7---7---7---7---9-----9---9---9---7-----7---7---7---9----|
|-9---9---9---7---7---7---7---9-----9---9---9---7-----7---7---7---9----|
|-9---9---9---7---7---7---7---9-----9---9---9---7-----7---7---7---9----|
|-7---7---7---5---5---5---5---7-----7---7---7---5-----5---5---5---7----|
|----------------------------------------------------------------------|
                                            PM:------------------------|
|----------------------------------------------------------------------|
|-9---9---9---7---7---7---7---9----9---9---9---7-----------------------|
|-9---9---9---7---7---7---7---9----9---9---9---7-----------------------|
|-9---9---9---7---7---7---7---9----9---9---9---7---------7-7-7-7-7-7---|
|-7---7---7---5---5---5---5---7----7---7---7---5--X/////-5-5-5-5-5-5---|
|----------------------------------------------------------------------|
Chorus (riff 3)
|-----------------------------------------------------------------------|
|-----------------------------------------------------------------------|
|-----------------------5-----------------------------5-----------------|
|-7--5--7---5--7--5--7--3--5--7---5--7--5--7--5---7---3----5------------|
|-5--3--5---3--5--3--5-----3--5---3--5--3--5--3---7--------3------------|
|-----------------------------------------------------------------------|
riff 4
|----------------------------------------------------------------------|
|----------------------------------------------------------------------|
|----------------------------------------------------------------------|
|----------------------------------------------------------------------|
|---------------7------------------7---------------------7-------------|
|-5--8--7--8--8---7--8--5--8--7--8---8--7--8--5--8--7--8---8--7--8-----|

|-----------------------------------------------------------------------|
|-----------------------------------------------------------------------|
|-----------------------------------------------------------------------|
|-----------------------------------------------------------------------|
|------------7---------------------7---------------------7--------------|
|-5--8--7--8---8--7--8--5--8--7--8---8--7--8--5--8--7--8---8---7--8-----|

|-----------------------------------------------------------------------|
|-----------------------------------------------------------------------|
|-----------------------------------------------------------------------|
|-----------------------------------------------------------------------|
|------------7----------------------7---------------------5-------------|
|-5--8--7--8---8--7--8---5--8--7--8---8--7--8--3--6--5--6---6--5---6----|

|----------------------------------------------------------------------|
|----------------------------------------------------------------------|
|----------------------------------------------------------------------|
|----------------------------------------------------------------------|
|------------5-----------------------7---------------------7-----------|
|-3--6--5--6---6--5--6---5--8--7---8---8--7--8--5--8--7--8---8--7---8--|

|----------------------------------------------------------------------|
|----------------------------------------------------------------------|
|----------------------------------------------------------------------|
|----------------------------------------------------------------------|
|------------5----------------------5---------------------7------------|
|-3--6--5--6---6--5--6---3--6--5--6---6--5--6--5--8--7--8---8--7---8---|

|----------------------------------------------------------------------|
|----------------------------------------------------------------------|
|----------------------------------------------------------------------|
|----------------------------------------------------------------------|
|--------------7-------------------------------------------------------|
|5---8---7---8---8---7---8---------------------------------------------|
Chorus (riff 3)
|----------------------------------------------------------------------|
|----------------------------------------------------------------------|
|-----------------------5-----------------------------5----------------|
|-7--5--7---5--7--5--7--3--5--7---5--7--5--7--5---7---3----5-----------|
|-5--3--5---3--5--3--5-----3--5---3--5--3--5--3---7--------3-----------|
|----------------------------------------------------------------------|
I havent tabbed the outro or solo yet and I'll do that when I get it figured out :-)
Comments