Motley Crue - Sick Love Song Chords & Tabs

 

Motley Crue Chords & Tabs

Version: 1 Type: Tab 0 ratings
1 star 2 stars 3 stars 4 stars 5 stars
comments

Sick Love Song Tab

   
Motley Crue- Sick Love Song
Tabbed by: iinsanity101( iinsanity101@yahoo.com )


PM- palm mute
/- slide up
\\- slide down
b- bend
p- pull off

D tuning DAFCGD

drop D tuning (ebgdad)


intro - a chord with effects, that i havent figured out yet

then....

d---------------------------------------------------------|
a---------------------------------------------------------|
f---------------------------------------------------------|
c--/-2-2---9-----8--7-7--8--5----2-2---9-----8--7-7--8--5-|
g--/-2-2---9--0--8--7-7--8--5----2-2---9--0--8--7-7--8--5-|
d--/-0-0---7--0--6--5-5--6--3----0-0---7--0--6--5-5--6--3-|

-----------------------------------------|
-----------------------------------------|
-----------------------------------------|
--2-2---9-----8--7-7--9--5---------------|
--2-2---9--0--8--7-7--9--5---------------|
--0-0---7--0--6--5-5--7--3--0-5b-0-5b-3b-|

-------------------------------------------------------|
-------------------------------------------------------|
-------------------------------------------------------|
--2-2---9-----8--7-7--8--5----2-2---9-----8--7-7--8--5-|
--2-2---9--0--8--7-7--8--5----2-2---9--0--8--7-7--8--5-|
--0-0---7--0--6--5-5--6--3----0-0---7--0--6--5-5--6--3-|

----------------------------9--11b-9--11b-9-|
----------------------------9--11b-9--11b-9-|
--------------------------------------------|
--2-2---9-----8--7-7--8--5------------------|
--2-2---9--0--8--7-7--8--5------------------|
--0-0---7--0--6--5-5--6--3------------------|

verse x2
PM------------------------------------------------------|
--------------------------------------------------------|
--------------------------------------------------------|
--------------------------------------------------------|
--------------------------------------------------------|
--2-2---9--0--8--7-7--8--5----2-2---9--0--8--7-7--8--5--|
--0-0---7--0--6--5-5--6--3----0-0---7--0--6--5-5--6--3--|

PM----------------------------------------|
------------------------------------------|
------------------------------------------|
------------------------------------------|
------------------------------------------|
--2-2---9--0--8--7-7--8--5----------------|
--0-0---7--0--6--5-5--6--3--0-5b-0-5b-3b--|

x2  \"haah, haah\"
-------------------------------------------------------|
-------------------------------------------------------|
-------------------------------------------------------|
--2-2---9-----8--7-7--8--5----2-2---9-----8--7-7--8--5-|
--2-2---9--0--8--7-7--8--5----2-2---9--0--8--7-7--8--5-|
--0-0---7--0--6--5-5--6--3----0-0---7--0--6--5-5--6--3-|

verse x1
PM------------------------------------------------------|
--------------------------------------------------------|
--------------------------------------------------------|
--------------------------------------------------------|
--------------------------------------------------------|
--2-2---9--0--8--7-7--8--5----2-2---9--0--8--7-7--8--5--|
--0-0---7--0--6--5-5--6--3----0-0---7--0--6--5-5--6--3--|

PM----------------------------------------|
------------------------------------------|
------------------------------------------|
------------------------------------------|
------------------------------------------|
--2-2---9--0--8--7-7--8--5----------------|
--0-0---7--0--6--5-5--6--3--0-5b-0-5b-3b--|

pre chorus
        PM          PM             PM                 PM
----------------------------------------------------------------|
----------------------------------------------------------------|
----------------------------------------------------------------|
--2--2-2-2-2---5--5-5-5-5--/-10--10-10-10-10--/-13--13-13-13-13-|
--2--2-2-2-2---5--5-5-5-5--/-10--10-10-10-10--/-13--13-13-13-13-|
--0--0-0-0-0---3--3-3-3-3--/-8----8--8--8--8--/-11--11-11-11-11-|

chorus
----------------------------------------------------------------|
----------------------------------------------------------------|
----------------------------------------------------------------|
------------------------------------------------5-5-5-5-7-7-7-7-|
--0--7p-5-7b--5---5p-3-5b--3----0--7p-5-7b--5---5-5-5-5-7-7-7-7-|
--0--7p-5-7b--5---5p-3-5b--3----0--7p-5-7b--5---3-3-3-3-5-5-5-5-|

-------------------------------------------------------------|
-------------------------------------------------------------|
-------------------------------------------------------------|
---------------------------------------------5-5-5-5-7-7-7-7-|
--0--7p-5-7b--5---5p-3-5b--3----5p-3-5b--3---5-5-5-5-7-7-7-7-|
--0--7p-5-7b--5---5p-3-5b--3----5p-3-5b--3---3-3-3-3-5-5-5-5-|
[ Tab from: http://www.guitartabs.cc/tabs/m/motley_crue/sick_love_song_tab.html ]
intro like riff
-------------------------------------------------------|
-------------------------------------------------------|
-------------------------------------------------------|
-------------------------------------------------------|
-------------------------------------------------------|
--0-0---7--0--6--5-5--6--3----0-0---7--0--6--5-5--6--3-|

-------------------------------------------------------|
-------------------------------------------------------|
-------------------------------------------------------|
--2-2---9-----8--7-7--8--5----2-2---9-----8--7-7--8--5-|
--2-2---9--0--8--7-7--8--5----2-2---9--0--8--7-7--8--5-|
--0-0---7--0--6--5-5--6--3----0-0---7--0--6--5-5--6--3-|

verse x2
PM------------------------------------------------------|
--------------------------------------------------------|
--------------------------------------------------------|
--------------------------------------------------------|
--------------------------------------------------------|
--2-2---9--0--8--7-7--8--5----2-2---9--0--8--7-7--8--5--|
--0-0---7--0--6--5-5--6--3----0-0---7--0--6--5-5--6--3--|

PM----------------------------------------|
------------------------------------------|
------------------------------------------|
------------------------------------------|
------------------------------------------|
--2-2---9--0--8--7-7--8--5----------------|
--0-0---7--0--6--5-5--6--3--0-5b-0-5b-3b--|

x2  \"haah, haah\"
-------------------------------------------------------|
-------------------------------------------------------|
-------------------------------------------------------|
--2-2---9-----8--7-7--8--5----2-2---9-----8--7-7--8--5-|
--2-2---9--0--8--7-7--8--5----2-2---9--0--8--7-7--8--5-|
--0-0---7--0--6--5-5--6--3----0-0---7--0--6--5-5--6--3-|

pre chorus
        PM          PM             PM                 PM
----------------------------------------------------------------|
----------------------------------------------------------------|
----------------------------------------------------------------|
--2--2-2-2-2---5--5-5-5-5--/-10--10-10-10-10--/-13--13-13-13-13-|
--2--2-2-2-2---5--5-5-5-5--/-10--10-10-10-10--/-13--13-13-13-13-|
--0--0-0-0-0---3--3-3-3-3--/-8----8--8--8--8--/-11--11-11-11-11-|

chorus
----------------------------------------------------------------|
----------------------------------------------------------------|
----------------------------------------------------------------|
------------------------------------------------5-5-5-5-7-7-7-7-|
--0--7p-5-7b--5---5p-3-5b--3----0--7p-5-7b--5---5-5-5-5-7-7-7-7-|
--0--7p-5-7b--5---5p-3-5b--3----0--7p-5-7b--5---3-3-3-3-5-5-5-5-|

-------------------------------------------------------------|
-------------------------------------------------------------|
-------------------------------------------------------------|
---------------------------------------------5-5-5-5-7-7-7-7-|
--0--7p-5-7b--5---5p-3-5b--3----5p-3-5b--3---5-5-5-5-7-7-7-7-|
--0--7p-5-7b--5---5p-3-5b--3----5p-3-5b--3---3-3-3-3-5-5-5-5-|

bridge-
mick jams a little with this( i know they arent the same
chords he uses, it sounds fine) then goes into the solo
----------------|
----------------|
--2---5---4---7-|
--2---5---4---7-|
--0---3---2---5-|

chorus- part with solo with effects
----------------------------------------------------------------|
----------------------------------------------------------------|
----------------------------------------------------------------|
------------------------------------------------5-5-5-5-7-7-7-7-|
--0--7p-5-7b--5---5p-3-5b--3----0--7p-5-7b--5---5-5-5-5-7-7-7-7-|
--0--7p-5-7b--5---5p-3-5b--3----0--7p-5-7b--5---3-3-3-3-5-5-5-5-|

-------------------------------------------------------------|
-------------------------------------------------------------|
-------------------------------------------------------------|
---------------------------------------------5-5-5-5-7-7-7-7-|
--0--7p-5-7b--5---5p-3-5b--3----5p-3-5b--3---5-5-5-5-7-7-7-7-|
--0--7p-5-7b--5---5p-3-5b--3----5p-3-5b--3---3-3-3-3-5-5-5-5-|

outro
-------------------------------------------------------|
-------------------------------------------------------|
-------------------------------------------------------|
--2-2---9-----8--7-7--8--5----2-2---9-----8--7-7--8--5-|
--2-2---9--0--8--7-7--8--5----2-2---9--0--8--7-7--8--5-|
--0-0---7--0--6--5-5--6--3----0-0---7--0--6--5-5--6--3-|

----------------------------9--11b-9--11b-9-|
----------------------------9--11b-9--11b-9-|
--------------------------------------------|
--2-2---9-----8--7-7--8--5------------------|
--2-2---9--0--8--7-7--8--5------------------|
--0-0---7--0--6--5-5--6--3------------------|
Comments