Motley Crue - She Goes Down Chords & Tabs

 

She Goes Down Chords & Tabs

Motley Crue Chords & Tabs

Version: 1 Type: Bass Tab 0 ratings
1 star 2 stars 3 stars 4 stars 5 stars
comments

She Goes Down Bass Tab

Drop D tuning
 
(Intro)
|----------------------|------5-(5)-----------|----------------------|
|------5-(5)-----------|------2-(2)-----------|------5-(5)-----------|
|------4-(4)-----------|-2----2-(2)-----------|------4-(4)-----------|
|-2----2-(2)-4p2p0-----|-2----2-(2)-4p2p0-----|-2----2-(2)-4p2p0-----|
|-2----2-(2)-------0---|-0----0-(0)-------0---|-2----2-(2)-------0---|
|-0----0-(0)---------3-|--------------------3-|-0----0-(0)---------3-|

|------5-(5)-----------|----------------------|------5-(5)-----------|
|------2-(2)-----------|------5-(5)-----------|------2-(2)-----------|
|-2----2-(2)-----------|------4-(4)-----------|-2----2-(2)-----------|
|-2----2-(2)-4p2p0-----|-2----2-(2)-4p2p0-----|-2----2-(2)-4p2p0-----|
|-0----0-(0)-------0---|-2----2-(2)-------0---|-0----0-(0)-------0---|
|--------------------3-|-0----0-(0)---------3-|--------------------3-|

|----------------------|------5-(5)------|-------------------------|
|------5-(5)-----------|------2-(2)------|-------------------------|
|------4-(4)-----------|-2----2-(2)------|-------------------------|
|-2----2-(2)-4p2p0-----|-2----2-(2)------|-------------2-----------|
|-2----2-(2)-------0---|-0----0-(0)------|-------------------2-4---|
|-0----0-(0)---------3-|-----------------|---3-4-0-3-4---3-4-----0-|

|-------------------|---------------------|
|-----8-9---8-9---9-|-(9)-----------------|
|-----6-7---6-7---7-|-(7)-----------------|
|---------------0---|---------------------|
|-------------------|-----2-4---2-4-------|
|-(0)---------------|---------0-----3b4-0-|

|-------------------|--------------------||
|-----8-9---8-9---9-|-(9)----------------||
|-----6-7---6-7---7-|-(7)----------------||
|---------------0---|--------------------||
|-------------------|-----2-4---2-4------||
|-(0)---------------|---------0-----3-4--||

(1st Verse)
|-----------------|-------------------|
|-----------------|-------------------|
|---------------4-|-(4)---------------|
|---2-4---2-4---5-|-(5)---4---2-------|
|-0-----0-----0---|-----0---0---3-4-0-|
|-----------------|-------------------|

|---------------------|------------------------|
|---------------------|-----13-14---13-14---14-|
|---------------------|-----11-12---11-12---12-|
|-----2-4---2-4-------|-------------------0----|
|-(0)-----0-----3b4-0-|-(0)-------0------------|
|---------------------|------------------------|

|---------------------|-------------------|
|-(14)----------------|-------------------|
|-(12)-------------/4-|-(4)---------------|
|------2-4---2-4---/5-|-(5)---4---2-------|
|----------0-----0----|-----0---0---3-4-0-|
|---------------------|-------------------|

|--------------------------|-----------------||
|-----13-14---13-14-----14-|-----------------||
|-----11-12---11-12-----12-|-----------------||
|-------------------(0)----|---2-4---2-4-----||
|-(0)-------0--------------|-------0---------||
|--------------------------|-------------3-4-||

|-----------------|---------------------|
|---8-9---8-9---9-|-(9)-----------------|
|---6-7---6-7---7-|-(7)-----------------|
|-------------0---|---------------------|
|-----------------|-----2-4---2-4-------|
|-0---------------|---------0-----3b4-0-|

|-------------------|--------------------||
|-----8-9---8-9---9-|-(9)----------------||
|-----6-7---6-7---7-|-(7)----------------||
|---------------0---|--------------------||
|-------------------|-----2-4---2-4------||
|-(0)---------------|---------0-----3h4--||

(Chorus 1)
|----------------------|------5-(5)-----------|
|------5-(5)-----------|------2-(2)-----------|
|------4-(4)-----------|-2----2-(2)-----------|
|-2----2-(2)-4p2p0-----|-2----2-(2)-4p2p0-----|
|-2----2-(2)-------0---|-0----0-(0)-------0---|
|-0----0-(0)---------3-|--------------------3-|

|----------------------|------5-(5)-----------|
|------5-(5)-----------|------2-(2)-----------|
|------4-(4)-----------|-2----2-(2)-----------|
|-2----2-(2)-4p2p0-----|-2----2-(2)-4p2p0-----|
|-2----2-(2)-------0---|-0----0-(0)-------0---|
|-0----0-(0)---------3-|--------------------3-|

|----------------------|------5-(5)-----------|
|------5-(5)-----------|------2-(2)-----------|
|------4-(4)-----------|-2----2-(2)-----------|
|-2----2-(2)-4p2p0-----|-2----2-(2)-4p2p0-----|
|-2----2-(2)-------0---|-0----0-(0)-------0---|
|-0----0-(0)---------3-|--------------------3-|

|----------------------|------5-(5)--------|
|------5-(5)-----------|------2-(2)--------|
|------4-(4)-----------|-2----2-(2)--------|
|-2----2-(2)-4p2p0-----|-2----2-(2)--------|
|-2----2-(2)-------0---|-0----0-(0)--------|
|-0----0-(0)---------3-|-------------------|

|----------------------------||--------------------------------|
|----------------------------||----------8--9-------8-9-----9--|
|----------------------------||----------6--7-------6-7-----7--|
|-------------2--------------||--------------------------------|
|---------------------2-4----||--------------------------------|
|---3-4-0-3-4---3--4-------0-||--(0)---------------------------|

|-----------------19------19-||-(19)-------19------------------|
|-----------------19------19-||-(19)b21====19r(19)-17----------|
|----------------------------||-------------------------18-18\-|
|----------------------------||--------------------------------|
|----------------------------||--------------------------------|
|----------------------------||--------------------------------|

|------------------------------|-------------------------------------------|
|------------------------------|-------8--9-----------8-----9----------9---|
|------------------------------|-------6--7-----------6-----7----------7---|
|------------------------------|-------------------------------------------|
|------2--4------2--4----------|-------------------------------------------|
|------------0---------3b4---0-|--(0)--------------------------------------|

|-----------12-(12)---14b16\---|------12----14-------15-------16-(16)-16\--|
|-----12-14--------------------|-------------------------------------------|
|-/13--------------------------|-/13-----14----14-15----15-16---------16\--|
|------------------------------|-------------------------------------------|
|------------------------------|-------------------------------------------|
|------------------------------|-------------------------------------------|

(2nd Verse)
|--------------------------------------||----------------------|
|--------------------------------------||----------------------|
|--------------------------------------||-------------------/4-|
|--------------------------------------||-------2-4---2-4---/5-|
|------2--4-----------2----4-----------||---0-------0-----0----|
|---------------0-----------------3--4-||----------------------|

|-----17----19-------20------21-(21)---||-(21)\----------------|
|--------------------------------------||----------------------|
|-/18----19----19-20----19-0-----------||----------------------|
|--------------------------------------||----------------------|
|--------------------------------------||----------------------|
|--------------------------------------||----------------------|

|-------------------|---------------------|
|-------------------|---------------------|
|-(4)---------------|---------------------|
|-(5)---4---2-------|-----2-4---2-4-------|
|-----0---0---3-4-0-|-(0)-----0-----3b4-0-|
|-------------------|---------------------|

|-------------------|---------------------|
|-------------------|---------------------|
|-------------------|---------------------|
|-------------------|---------------------|
|-------------------|---------------------|
|-------------------|---------------------|

|--------------------------------------|
|-----13-----14------13--14--------14--|
|-----11-----12------11--12--------12--|
|--------------------------------------|
|-(0)----------------------------------|
|--------------------------------------|

|--------------------------------------|
|-----12b14r(12)-10-(10)----12b18-(12)-|
|--------------------------------------|
|--------------------------------------|
|--------------------------------------|
|--------------------------------------|

|---------------------|-------------------|
|-(14)----------------|-------------------|
|-(12)--------------4-|-(4)---------------|
|------2-4----2-4---5-|-(5)---4---2-------|
|-----------0-----0---|-----0---0---3-4-0-|
|---------------------|-------------------|

|---------------------|-------------------|
|-(12)----------------|-------------------|
|---------------------|-------------------|
|---------------------|-------------------|
|---------------------|-------------------|
|---------------------|-------------------|

|------------------------|------------------------------------||
|-----13-14---13-14---14-|------------------------------------||
|-----11-12---11-12---12-|----4------4-------4---4------------||
|-------------------0----|----2------2-------2---2----------2-||
|-(0)-------0------------|------------------------------------||
|------------------------|------------------------------------||

|------------------------|---19b21r(19)-17-(17)---------------||
|------------------------|----------------------19b21r(19)-17-||
|------------------------|------------------------------------||
|------------------------|------------------------------------||
|------------------------|------------------------------------||
|------------------------|------------------------------------||

|-----------------------------|
|----------------8-----9---9--|
|----------------6-----7---7--|
|---2-------------------------|
|-----------------------------|
|-----------------------------|

|-----------------------------|
|-(17)--19b21--(19)-----------|
|-----------------------------|
|-----------------------------|
|-----------------------------|
|-----------------------------|

|----------------------------|--------------------|
|-(9)------------------------|------8-9---8-9---9-|
|-(7)------------------------|------6-7---6-7---7-|
|----------------------------|--------------------|
|------2--4----2--4----------|--------------------|
|-----------0-------3b3.5--0-|--(0)---------------|

|-----12-12------------------|--------------------|
|-----12-12---12-12----------|--------------------|
|----------------------------|--------------------|
|----------------------------|--------------------|
|----------------------------|--------------------|
|-------------------------12-|-(12)---------------|

|-----------------------------||
|-(9)-------------------------||
|-(7)-------------------------||
|---------------4p2p0---------||
|-----2-4-----2-------0-------||
|---------(0)-----------3b3.5-||

|-----------------------------||
|-----------------------------||
|-----------------------------||
|-----------------------------||
|-----------------------------||
|--x\-------------------------||

(Chorus 2)
|----------------------|------5-(5)-----------|
|------5-(5)-----------|------2-(2)-----------|
|------4-(4)-----------|-2----2-(2)-----------|
|-2----2-(2)-4p2p0-----|-2----2-(2)-4p2p0-----|
|-2----2-(2)-------0---|-0----0-(0)-------0---|
|-0----0-(0)---------3-|--------------------3-|

|----------------------|------5-(5)-----------|
|------5-(5)-----------|------2-(2)-----------|
|------4-(4)-----------|-2----2-(2)-----------|
|-2----2-(2)-4p2p0-----|-2----2-(2)-4p2p0-----|
|-2----2-(2)-------0---|-0----0-(0)-------0---|
|-0----0-(0)---------3-|--------------------3-|

|----------------------|------5-(5)-----------|
|------5-(5)-----------|------2-(2)-----------|
|------4-(4)-----------|-2----2-(2)-----------|
|-2----2-(2)-4p2p0-----|-2----2-(2)-4p2p0-----|
|-2----2-(2)-------0---|-0----0-(0)-------0---|
|-0----0-(0)---------3-|--------------------3-|

|----------------------|------5-(5)-----------|
|------5-(5)-----------|------2-(2)-----------|
|------4-(4)-----------|-2----2-(2)-----------|
|-2----2-(2)-4p2p0-----|-2----2-(2)-4p2p0-----|
|-2----2-(2)-------0---|-0----0-(0)-------0---|
|-0----0-(0)---------3-|--------------------3-|

|-------------------------------|------------5-(5)--------------|
|------------5-(5)--------------|------------2-(2)--------------|
|------------4-(4)--------------|--2---------2-(2)--------------|
|--2---------2-(2)--4p2p0-------|--2---------2-(2)--4p2p0-------|
|--2---------2-(2)---------0----|--0---------0-(0)---------0----|
|--0---------0-(0)------------3-|-----------------------------3-|

  PM------------------------------------------------------------

|-------------------------------|-------------------------------|
|-12--------12------------12----|-14--------14------------14----|
|-----13-------13---------------|-----14-------14------------13-|
|--------14--------14--------14-|--------14--------14-----------|
|-------------------------------|-------------------------------|
|-------------------------------|-------------------------------|

|-------------------------------|----------5--(5)------------|
|------------5-(5)--------------|----------2--(2)------------|
|------------4-(4)--------------|--2-------2--(2)------------|
|--2---------2-(2)--4p2p0-------|--2-------2--(2)-4p2p0------|
|--2---------2-(2)---------0----|--0-------0--(0)--------0---|
|--0---------0-(0)------------3-|--------------------------3-|

|-------------------------------|-14b15---14-(14)-------12---|
|-15--------15------------15-12-|----------------------------|
|-----13-------13---------------|----------------------------|
|--------14--------14-----------|----------------------------|
|-------------------------------|----------------------------|
|-------------------------------|----------------------------|

|-------------------------------|------------5-(5)--------------|
|------------5-(5)--------------|------------2-(2)--------------|
|------------4-(4)--------------|--2---------2-(2)--------------|
|--2---------2-(2)--4p2p0-------|--2---------2-(2)--4p2p0-------|
|--2---------2-(2)---------0----|--0---------0-(0)---------0----|
|--0---------0-(0)------------3-|-----------------------------3-|
[ Tab from: http://www.guitartabs.cc/tabs/m/motley_crue/she_goes_down_btab.html ]
  PM----------------------------------------------------------|
|-------------------------------|-------------------------------|
|-12--------12------------12----|-14--------14------------14-12-|
|-----13-------13------------13-|-----14-------14---------------|
|--------14--------14-----------|--------14--------14-----------|
|-------------------------------|-------------------------------|
|-------------------------------|-------------------------------|

|----------------------|-------------------------||
|----------------------|-------------------------||
|----------------------|-------------------------||
|--7-------7--(7)---9--|-------------------------||
|--5-------4--(4)---9--|---7--------7--(7)\---4--||
|-------------------7--|---5--------4--(4)\---2--||

|-14b15---14-(14)--12--|-------------------------||
|----------------------|-[14]b15---14-(14)---12--||
|----------------------|-------------------------||
|----------------------|-------------------------||
|----------------------|-------------------------||
|----------------------|-------------------------||

 (Bridge)
|---------------|-----------------|------------------|-------------------|
|---------------|-----------------|------------------|-------------------|
|----0-------0--|----0--------2---|----0---------0---|----0---------2----|
|--4-------4----|--4--------2-----|--4--------4------|--4--------2-------|
|2----3-(3)-----|4----5-(5)-----0-|2----3-(3)--------|4----5-(5)-------0-|
|---------------|-----------------|------------------|-------------------|

|------------------|-------------------|
|------------------|-------------------|
|-----0---------0--|-----0---------2---|
|---4---------4----|---4---------2-----|
|-2-----3-(3)------|-4-----5-(5)-----0-|
|------------------|-------------------|

|-----------------|---------------------||
|-----------------|---------------------||
|----0---------0--|-----0---------2-----||
|------------4----|---4---------2-------||
|-2----3-(3)------|-4-----5-(5)---------||
|-----------------|-----------------3b4-||

|------------|-----------------|------------|--------------------||
|------------|-----------------|------------|-----8-9---8-9---10-||
|------------|-----------------|------------|-----6-7---6-7------||
|------------|---2-2---2-2---2-|-(2)--------|-(2)----------------||
|-2----------|---2-2---2-2---2-|-(2)--------|-(2)-----0----------||
|-0----------|---0-0---0-0---0-|-(0)--------|-(0)----------------||

|-----------------------------|------------------------------|
|-(10)-10-10-10-10-12--12b14==|=(12)-12-12-12-12r(12)-10--10-|
|-----------------------------|------------------------------|
|-----------------------------|------------------------------|
|-----------------------------|------------------------------|
|-----------------------------|------------------------------|

|--------------------------------|--------------------|
|-(10)--12b14---12b14r(12)-10-10-|-(10)--12b14\-------|
|--------------------------------|--------------------|
|--------------------------------|--------------------|
|--------------------------------|--------------------|
|--------------------------------|--------------------|

|----------------------|---------------------------------|
|---8-9---8-9---15b17==|=(15)-15-15-15-15-15-15-15r\-----|
|---6-7---6-7-0--------|---------------------------------|
|----------------------|---------------------------------|
|----------------------|---------------------------------|
|----------------------|---------------------------------|

|------------------------|----------------------------||
|---8-9---8-9-10tr13b12--|-10tr13b12----(10)-8--------||
|---6-7---6-7------------|---------------------9-(9)--||
|------------------------|----------------------------||
|------------------------|----------------------------||
|------------------------|----------------------------||

 Guitar Solo
|------------------------------------|
|-15b17r=(15)-15b17==(15)--(15)\-/12-|
|------------------------------------|
|------------------------------------|
|------------------------------------|
|------------------------------------|
 
|12---14---15---17---15---14---12-----|-------15----15----(15)--------3-3|
|--12---12---12---12---12---12---15-12|15b17--15b17-15b17-(15)--(15)\----|
|-------------------------------------|----------------------------------|
|-------------------------------------|----------------------------------|
|-------------------------------------|----------------------------------|
|-------------------------------------|----------------------------------|

|-3s2-2-2-2p0-0-0-----------------|
|-----------------5s3-3-3-3s2-2-2-|
|---------------------------------|
|---------------------------------|
|---------------------------------|
|---------------------------------|

|---------------------------------|--------------------------|
|-2p0-0-0-------------------------|---------------------12---|
|---------4s2-4-2-2-0-2-0-2-0-2-0-|-[2]b4--[2]b4-------------|
|---------------------------------|---------------[2]--------|
|---------------------------------|--------------------------|
|---------------------------------|--------------------------|

|-15b17--14b15--12---------|
|-------------------14--12-|
|--------------------------|
|--------------------------|
|--------------------------|
|--------------------------|

|-15b17-14b15-12-------15b17-14b15-12----12----|-12----|
|----------------14-12----------------14----14-|-------|
|----------------------------------------------|-------|
|----------------------------------------------|-------|
|----------------------------------------------|-------|
|----------------------------------------------|-------|

|---10------10------10------10----|---------------|
|---10b12---10b12---10b12---10b12-|-8----8-(8)----|
|---------------------------------|---9-----------|
|---------------------------------|---------------|
|---------------------------------|---------------|
|---------------------------------|---------------|

|----------------------------------|
|-(8)\-----9-11b12==(11)r11--9h11--|
|------/11-------------------------|
|----------------------------------|
|----------------------------------|
|----------------------------------|

|-------|-------------------|-<5>----(5)--<5>---<5>|-<5>--<5>---(5)----||
|-------|---------------<5>-|----------------------|-------------------||
|-9-----|-(9)----(9)\-------|----------------------|-------------------||
|-------|-------------------|----------------------|-------------------||
|-------|-------------------|----------------------|-------------------||
|-------|-------------------|----------------------|-------------------||

(Bass solo)

|------------|------------------|
|------------|------------------|
|------------|-----2-----2------|
|------------|---2-----2--------|
|------------|-5-----4----------|
|------------|-------------[3]--|

|------------||------------------|-----------------|
|------------||------------------|-----------------|
|------------||------------------|-2----2-(2)------|
|------------||------------------|-2----2-(2)------|
|-2----------||-2----2-(2)-------|-0----0-(0)-0----|
|-0----------||-0----0-(0)-0-3p0-|--------------3--|

|------------------|-----------------|------------------|-----------------|
|------------------|-----------------|------------------|-----------------|
|------------------|-2----2-(2)------|------------------|-2----2-(2)------|
|------------------|-2----2-(2)------|------------------|-2----2-(2)------|
|-2----2-(2)-------|-0----0-(0)-0----|-2----2-(2)-------|-0----0-(0)-0----|
|-0----0-(0)-0-3p0-|--------------3--|-0----0-(0)-0-3p0-|--------------3--|

|------------------|-----------------||
|------------------|-----------------||
|------------------|-2----2-(2)------||
|------------------|-2----2-(2)------||
|-2----2-(2)-------|-0----0-(0)-0----||
|-0----0-(0)-0-3p0-|--------------3--||

|------------------|-----------------||
|------------------|-----------------||
|------------------|-----------------||
|------------------|-----------------||
|------------------|-----------------||
|------------------|-----------------||

  PM------------------------------------------------|
|-9--------9--------9----|-11--------11--------11-13-|
|----11------11-------11-|-----12-------12-----------|
|-------11-------11------|--------11--------11-------|
|------------------------|---------------------------|
|------------------------|---------------------------|
|------------------------|---------------------------|

|------------------------|---------------------------|
|------------------------|---------------------------|
|------------------------|--4---------4-(4)----------|
|------------------------|--4---------4-(4)----------|
|-4--------4-(4)---------|--2---------2-(2)--2-------|
|-2--------2-(2)--2-5p=2-|----------------------5----|

|-----------------------------|------------------------|
|-----------------------------|------------------------|
|-----------------------------|--4-------4--(4)--------|
|-----------------------------|--4-------4--(4)--------|
|--4---------4-(4)------------|--2-------2--(2)-2------|
|--2---------2-(2)--2--5p==2--|--------------------5---|

|-12--------12--------12------|-16b17---16-(16)---14\--|
|-----11-------11--------(11)-|------------------------|
|--------11--------11---------|------------------------|
|-----------------------------|------------------------|
|-----------------------------|------------------------|
|-----------------------------|------------------------|
 
|------------------------|-------------------------|
|------------------------|-------------------------|
|------------------------|--4---------4-(4)--------|
|------------------------|--4---------4-(4)--------|
|-4--------4-(4)---------|--2---------2-(2)--2-----|
|-2--------2-(2)--2-5p=2-|----------------------5--|

 PM---------------------------------------------|
|-9--------9--------9----|-11--------11--------11--|
|----11------11-------11-|-----12-------12---------|
|-------11-------11------|--------11--------11-----|
|------------------------|-------------------------|
|------------------------|-------------------------|
|------------------------|-------------------------|

|---------------------------|------------------------||--------------------|
|---------------------------|------------------------||--------------------|
|---------------------------|--4-------4--(4)--------||--------------------|
|---------------------------|--4-------4--(4)--------||--------------------|
|--4---------4-(4)----------|--2-------2--(2)-2------||--4----4-(4)--------|
|--2---------2-(2)--2--5p=2-|--------------------5---||--2----2-(2)-2--5p2-|

  PM---------------------|
|-12--------12-12-----12----|-16b17---16-(16)---14\--||--------------------|
|-----11-----------------11-|------------------------||--------------------|
|--------11--------11-------|------------------------||--------------------|
|---------------------------|------------------------||--------------------|
|---------------------------|------------------------||--2----2--2---------|
|---------------------------|------------------------||--0----0--0--0--3-0-|

|---------------------------|------------------------||--------------------|
|---------------------------|------------------------||--------------------|
|---------------------------|------------------------||-/9------------11p9-|
|---------------------------|------------------------||--------------------|
|---------------------------|------------------------||--------------------|
|---------------------------|------------------------||--------------------|

|--------------------------------|
|--------------------------------|
|--2-----------2--(2)------------|
|--2-----------2--(2)------------|
|--0-----------0--(0)-----0------|
|----------------------------3---|

|--------------------------------|
|--------------------------------|
|-11b13-11b13r===(11)pb13r==11p9-|
|--------------------------------|
|--------------------------------|
|--------------------------------|

|-----------------------------|-------------------------|
|-----------------------------|-------------------------|
|-----------------------------|-2------2-(2)------------|
|-----------------------------|-2------2-(2)------------|
|--2-----------2--(2)---------|-0------0-(0)-0----------|
|--0-----------0--(0)--0-3p=0-|-----------------3-------|

|-----------------------------|--------------9-12p9-12--|
|---------------------12------|-------------------------|
|-11b13--11b13---(11)------11-|-9------9-(9)------------|
|-----------------------------|----11-------------------|
|-----------------------------|-------------------------|
|-----------------------------|-------------------------|

|--------------------|----------------------------|
|--------------------|----------------------------|
|--------------------|--2-----------2-(2)---------|
|--------------------|--2-----------2-(2)---------|
|--2----2-(2)--------|--0-----------0-(0)-0-------|
|--0----0-(0)-0-3p=0-|-----------------------3----|

|-12------------9----|-15b17--14b16---12----------|
|-----------------12-|----------------------14-12-|
|--------------------|----------------------------|
|--------------------|----------------------------|
|--------------------|----------------------------|
|--------------------|----------------------------|

|----------------------------------|--------------------||
|----------------------------------|--------------------||
|----------------------------------|--------------------||
|--7----7-7--7-------7----7---4----|--------------------||
|--5----5-5--4-------4----4---2----|----7--7--7-7-7-4---||
|----------------------------------|----5--5--5-4-4-2-0-||

|-15b17-----14b16==(14)r(14)-12\---|--------------------||
|----------------------------------|---10-10-10-9-9-7-5-||
|----------------------------------|--------------------||
|----------------------------------|--------------------||
|----------------------------------|--------------------||
|----------------------------------|--------------------||

|----------|--------------------|--------*|
|----------|--------------------|--------*|
|-1--------|-(1)----------------|-(1)----*|
|-2--------|-(2)----------------|-(2)----*|
|-2--------|-(2)----------------|-(2)----*|
|-0--------|-(0)----------------|-(0)----*|

|----------|--------------------|--0-----*|
|-5--------|-(5)\---------------|--0-----*|
|----------|--------------------|--------*|
|----------|--------------------|--------*|
|----------|--------------------|--------*|
|----------|---------2b4--2b4-0-|-(0)----*|

Thanks, please rate it after you learn it.
Comments