Motley Crue - Primal Scream Chords & Tabs

 

Primal Scream Chords & Tabs

Motley Crue Chords & Tabs

Version: 1 Type: Bass Tab

Primal Scream Bass Tab

   
Tabbed By : nikkisixx66
e-mail: troz178@aol.com

Tuning:standard(E A D G)
G|---------------------------|
D|---------------------------|
A|---------------------------|
E|-----12\3------------------|

G|--------------------------------------------------------------------|
D|--------------------------------------------------------------------| x4 
A|--------------------------------------------------------------------|     
E|---3333333333333333333333333333\1111111111111111111111111111--------|
               
                ::follow the bass drum::
                  \/   \/    \/    \/
G|-------|-------------------------------------------------------------------|
D|-------|-------------------------------------------------------------------|
A|-------|-------------------------------------------------------------------|
E|--3----|--3-33-3-33-3-33-3-33-3-33-3-33-3-33-3-33--------------------------|

G|---------------------------------------------------------------------------|
D|---------------------------------------------------------------------------|
A|---------------------------------------------------------------------------|
E|---3333333333333333/66666666666----1-0-1-2-2-3-1111111111------------------|

G|---------------------------------------------------------|
D|---------------------------------------------------------|<--with guitarist
A|-----------------3------3----------------3------3--------|
E|--3333-3333-1111---1111---3333-3333-1111---1111----------|

G|-------------------------------------------|
D|--3-2-0h2p0----0h2p0--3-2-0h2p0------------|
A|------------1-2----------------1-2---------|x2
E|----------------------------------3--------|
[ Tab from: http://www.guitartabs.cc/tabs/m/motley_crue/primal_scream_btab.html ]
G|-------------------------------------------------|
D|-------------------------------------------------|
A|-------------------------------------------------|
E|-3-33-3-33-3-33-3-33-3-33-3-33-3-33-3-33---------|

G|---------------------------------------------------------------------------|
D|---------------------------------------------------------------------------|
A|---------------------------------------------------------------------------|
E|---3333333333333333/66666666666----1-0-1-2-2-3-1111111111------------------|

G|---------------------------------------------------------------------------|
D|---------------------------------------------------------------------------|
A|-----------------3------3----------------3------3--------------------------|
E|--3333-3333-1111---1111---3333-3333-1111---1111----------------------------|

G|--------------------------------------------------|
D|---3-2-0h2p0----0h2p0--3-2-0h2p0------------------|x4
A|------------1-2-----------------1-2---------------|
E|-----------------------------------3--------------|

havent figured out the bass part for the guitar solo but as soon as i do i will repost the tab

G|-------------------------------------------------------------------------|
D|-------------------------------------------------------------------------|
A|-------------------------------------------------------------------------|
E|-3333333333333333333333333333\1111111111111111111111111111-3333333333333333333333333333-|

G|-------------------------------------|
D|-------------------------------------|
A|--------------------------3------3---|x4
E|-3333-3333-3333-3333-1111---1111-----|

G|----------------------------------|
D|--3-2-0h2p0---0h2p0--3-2-0h2p0----|
A|-----------1-2----------------1-2-|x4
E|---------------------------------3|
pretty sure this is all right if you find something wrong let me know
                                  ::end::
       
| /  slide up
| \  slide down
| h  hammer-on
| p  pull-off
| ~  vibrato
| +  harmonic
| x  Mute note
===============================================================================