Motley Crue - On With The Show Chords & Tabs

 

On With The Show Chords & Tabs

Motley Crue Chords & Tabs

Version: 1 Type: Tab 2 ratings
1 star 2 stars 3 stars 4 stars 5 stars
comments

On With The Show Tab

   
Motley Crue - On With The Show

Transcribed By: Jack Arrowood

I Think this is the Whole song. There are variations throughout like in
The chorus he is just playing the cords instead of picking the notes out.
You're on your own for the solo I didn't have time to figure it out
but I'm sure it's pretty easy
Good Luck!! and if you play in a band PLEASE PLAY THIS SONG!!!!!!!
[ Tab from: http://www.guitartabs.cc/tabs/m/motley_crue/on_with_the_show_tab.html ]
   D                  C#                B                 A
e |------------------|-----------------|-----------------|-----------------|
B |----------8p7-----|---------8p7-----|---------3-------|---------3p2-----|
G |------7-------7---|-----7-------7---|-----4-----4---4-|-----2-------2---|
D |----7---7-------7-|---7---7-------7-|---4---4-----4---|---2---2-------2-|
A |--5---------------|-4---------------|-2---------------|-0---------------|
E |------------------|-----------------|-----------------|-----------------|
   
   G                  E                 A                 A              
e |------------------|-----------------|-----------------|-----------------|
B |------------------|-----------------|---------3p2-----|---------3p2-----|
G |---------4--------|---------0-------|-----2-------2---|-----2-------2---|
D |-----5-----5---5--|-----2-----2---2-|---2---2-------2-|---2---2-------2-|
A |---5---5-----5----|---2---2-----2---|-0---------------|-0---------------|
E |-3----------------|-0---------------|-----------------|-----------------|
Comments