Motley Crue - New Tattoo Chords & Tabs

 

New Tattoo Chords & Tabs

Motley Crue Chords & Tabs

Version: 1 Type: Tab 0 ratings
1 star 2 stars 3 stars 4 stars 5 stars
comments

New Tattoo Tab

   
new tattoo
motley crue

h- hammer on
b- bend
br- bend release

standard tuning or drop d- DAFCGD

intro and main solos
e-------------------------|
b-------------------------|
g-------------------------|
d--14br12-----------------|
a---------14--14-12-------|
e-------------------14-10-|
[ Tab from: http://www.guitartabs.cc/tabs/m/motley_crue/new_tattoo_tab.html ]
e--------------------------------------------------------------------|
b--------------------------------------------------------------------|
g--------------------------------------------------------------------|
d--------12----12-12----12-------------------------------------------|
a--12h14----14-------14----14-12-14-12----12-------------10----------|
e--------------------------------------14----14-12-10-12----12-10-12-|

e----------------------------------------|
b----------------------------------------|
g-----------------------------12-14b-12b-|
d-----------------------12-14------------|
a--------10-------12-14------------------|
e--10-12----12-14------------------------|

Main solo
e----------------------------------------------|
b----------------------------------------------|
g--------12----12-14b--------12----12-12h14----|
d--12h14----14---------12h14----14----------12-|
a----------------------------------------------|
e----------------------------------------------|

this was sent to me from- forrest redden (f.w.redden@student.tcu.edu)
email either one of us for questions

valkeyrie3@hotmail.com
Comments