Motley Crue - If I Die Tomorrow Chords & Tabs

 

If I Die Tomorrow Chords & Tabs

Motley Crue Chords & Tabs

Version: 1 Type: Tab 0 ratings
1 star 2 stars 3 stars 4 stars 5 stars
comments

If I Die Tomorrow Tab

   
#----------------------------------PLEASE NOTE---------------------------------#
#This file is the author's own work and represents their interpretation of the-#
#song. You may only use this file for private study, scholarship, or research.-#
#---------------This file was downloaded from www.taborama.com-----------------#
Motley Crue - If I Die Tomorrow

The Crue Is Back!!

Dropped d tuning -  Everybody's guitar is gonna be tuned differently, so if you want to 
play along with the song, tune your higher D string to the 3rd fret note in the intro...
its a nice clear note to tune to.  Then you can tune the rest of your strings from there.  
Overall its a pretty simple song, sounds cool, and fun to play.  Im not too sure about 
the pre-choruses, and I left out the short solo in the ending chorus because its friggen 
impossible to hear all the notes.  



Intro (2x)
E----------------|-------------------------------
B----------------|-------------------------------
G----------------|-------------------------------
D---0--3--2-0-2--|---0---3--2-0-2---0--3--2-0-2--
A----------------|-------------------------------
D--0-0-----------|--3-3------------5-5-----------
       (x2)

Intro Part 2
E---------------------------------------------
B---------------------------------------------
G--/--5/7--5/7--5/7--5/7--7---5/7--5/7--10/7--
D--/--5/7--5/7--5/7--5/7--7---5/7--5/7--10/9--
A--/--3/5--3/5--3/5--3/5--5---3/5--3/5--8-/9--
D---------------------------------------------

E------------------------------------------
B------------------------------------------
G--5/7--5/7--5/7--5/7--7--5/7--------------
D--5/7--5/7--5/7--5/7--7--3/5--9/10--10/9--
A--3/5--3/5--3/5--3/5--5-------7/8---8-/7--
D------------------------------------------

Verse
E----------------|-------------------------------
B----------------|-------------------------------
G----------------|-------------------------------
D---0--3--2-0-2--|---0---3--2-0-2---0--3--2-0-2--
A----------------|-------------------------------
D--0-0-----------|--3-3------------5-5-----------
       (x2)

Pre-chorus
E--------------------------------
B--------------------------------
G--------------------------------
D---0---3--2-0-2---0--3--2-0-2---
A--------------------------------
D--3-3------------5-5------------

E---------------------------------
B--------------------------------
G--------------------------------
D---0---3--2-0-2---0--3--2-0-2---
A--------------------------------
D--3-3------------5-5------------

Chorus
E----------------------------------
B----------------------------------
G--/--5/7--5/7--5/7--5/7--7--------
D--/--5/7--5/7--5/7--5/7--7--8-10--
A--/--3/5--3/5--3/5--3/5--5--8-10--
D----------------------------8-10--

E-----------------------------------------------
B-----------------------------------------------
G-------------------------------------------7:--
D--8-8-8-8-8-8-8-8-10-10-10-10-10-10-10-10--7:--
A--8-8-8-8-8-8-8-8-10-10-10-10-10-10-10-10--5:--
D--8-8-8-8-8-8-8-8-10-10-10-10-10-10-10-10--0:--
[ Tab from: http://www.guitartabs.cc/tabs/m/motley_crue/if_i_die_tomorrow_tab.html ]
Verse
E----------------|-------------------------------
B----------------|-------------------------------
G----------------|-------------------------------
D---0--3--2-0-2--|---0---3--2-0-2---0--3--2-0-2--
A----------------|-------------------------------
D--0-0-----------|--3-3------------5-5-----------
       (x2)

Pre-chorus
E--------------------------------
B--------------------------------
G--------------------------------
D---0---3--2-0-2---0--3--2-0-2---
A--------------------------------
D--3-3------------3-3------------

E---------------------------------
B--------------------------------
G--------------------------------
D---0---3--2-0-2---0--3--2-0-2---
A--------------------------------
D--5-5------------5-5------------

Chorus
E----------------------------------
B----------------------------------
G--/--5/7--5/7--5/7--5/7--7--------
D--/--5/7--5/7--5/7--5/7--7--8-10--
A--/--3/5--3/5--3/5--3/5--5--8-10--
D----------------------------8-10--


E----------------------------------------------------------------
B----------------------------------------------------------------
G-------------------------------------------7:--7-7-7-7-7-7-7-7--
D--8-8-8-8-8-8-8-8-10-10-10-10-10-10-10-10--7:--7-7-7-7-7-7-7-7--
A--8-8-8-8-8-8-8-8-10-10-10-10-10-10-10-10--5:--5-5-5-5-5-5-5-5--
D--8-8-8-8-8-8-8-8-10-10-10-10-10-10-10-10--0:--------------------

E---------------------------------------------
B---------------------------------------------
G--/--5/7--5/7--5/7--5/7--7---5/7--5/7--10/7--
D--/--5/7--5/7--5/7--5/7--7---5/7--5/7--10/9--
A--/--3/5--3/5--3/5--3/5--5---3/5--3/5--8-/9--
D---------------------------------------------

E------------------------------------------
B------------------------------------------
G--5/7--5/7--5/7--5/7--7--5/7--------------
D--5/7--5/7--5/7--5/7--7--3/5--9/10--10/9--
A--3/5--3/5--3/5--3/5--5-------7/8---8-/7--
D------------------------------------------


Brigde (just strum)
   F   C   D  Bb G  C  D
E--------------------------
B--------------------------
G--10------7--------5--7:--
D--10--10--7--8--5--5--7:--
A--8---10--5--8--5--3--5:--
D------10--0--8--5-----0:--

           
Chorus
E----------------------------------
B----------------------------------
G--/--5/7--5/7--5/7--5/7--7--------
D--/--5/7--5/7--5/7--5/7--7--8-10--
A--/--3/5--3/5--3/5--3/5--5--8-10--
D----------------------------8-10--


E-------------------------------------------
B-------------------------------------------
G-------------------------------------------
D--8-8-8-8-8-8-8-8-10-10-10-10-10-10-10-10--
A--8-8-8-8-8-8-8-8-10-10-10-10-10-10-10-10--
D--8-8-8-8-8-8-8-8-10-10-10-10-10-10-10-10--


E---------------------------------------------
B---------------------------------------------
G--/--5/7--5/7--5/7--5/7--7---5/7--5/7--10/7--
D--/--5/7--5/7--5/7--5/7--7---5/7--5/7--10/9--
A--/--3/5--3/5--3/5--3/5--5---3/5--3/5--8-/9--
D---------------------------------------------

E------------------------------------------
B------------------------------------------
G--5/7--5/7--5/7--5/7--7--5/7--------------
D--5/7--5/7--5/7--5/7--7--3/5--9/10--10/9--
A--3/5--3/5--3/5--3/5--5-------7/8---8-/7--
D------------------------------------------



Thats all folks!  Its not perfect, but it will give you a general idea of how the song goes.



================================================================================
Comments