Motley Crue - If I Die Tomorrow Chords & Tabs

 

If I Die Tomorrow Chords & Tabs

Motley Crue Chords & Tabs

Version: 2 Type: Bass Tab 0 ratings
1 star 2 stars 3 stars 4 stars 5 stars
comments

If I Die Tomorrow Bass Tab

               Intro
F|--------------------------------|
C|----------------------2---------|
G|7--------3---5-------------3---5|
C|----2-------------2-------------|


F|---------------------------------------------|
C|---------------------------------------------|
G|--------------33-33-35---------------33-33-35|
C|02-02-02-022-----------02-02-02-022----------|

         Verse1
F|---------------------------------------|
C|2-----------------2--------------------|
G|-------3-3--555x5---------3-3--5x55x7\-|
C|---22----------------22----------------|

|------------------------55x5----------|
|-----5--------------------------------|
|3---3-3---5--355-7\3---3-----5-----15\|verse continued
|--------------------------------------|

         Chorus
F|---------------------------------------|
C|---------------------------------------|
G|--------------3333555555---------------|
C|02-02-02-022-------------02-02-02-022--|

|---------------------------------------------|
|---------------------------------------------|
|33335x5555-3333-3333-555555555555------------|chorus continued
|---------------------------------00-2-----10\|

         Verse 2
F|---------------------------------------|
C|---22--20--------------222--20----54---|
G|----------3--335---------------3----5--|
C|2-------------------2------------------|

--------5---------------------5---------------|
----------------------------------------------|
553-x-33-3x--5--5555x55-3-x-33-3x--55x5x/17---| verse 2 continued
-------------------------------------------19\|

         Chorus
F|---------------------------------------|
C|---------------------------------------|
G|--------------3333555555---------------|
C|02-02-02-022-------------02-02-02-022--|
[ Tab from: http://www.guitartabs.cc/tabs/m/motley_crue/if_i_die_tomorrow_btab_ver_2.html ]
|---------------------------------------------|
|---------------------------------------------| chorus continued
|33335x5555-3333-3333-555555555555------------|
|---------------------------------00-2-----10\|

               Verse 3
F|----------------------------------------------------------------------|
C|----------------------------------------------------------------------|
G|-------------------------------33-33-35-555---------------33-33-35-555|
C|2222222222222222-02-02-02-022---------------02-02-02-022--------------|

              Bridge
F|-------------------------------------------|
C|------------------------------22-2--22-220-|
G|---------------55555555555555--------------|
C|55555555555555------------------2-22--2----|

--------------------------------------|
--------------------------------------|
-33333333332222-000000-0000-5555555555|
--------------------------------------|

F|-------------------------------------------------------------------|
C|------------------------------------------22222222-2222222222222222|
G|33333333332222-00000-0000-5555555555-------------------------------|
C|--------------------------------------2----------------------------|

    Outro
F|---------------------------------------|
C|---------------------------------------|
G|--------------33335x5555---------------|
C|02-02-02-022-------------02-02-02-022--|

--------------------------------------|
--------------------------------------|
33335x5555-3333333333333-5555555555555|
--------------------------------------|

F|----------------------------------------|
C|----------------------------------------|
G|-33333333333333-5555555/171717\---------|
C|-------------------------------00-02-02-|

----------------------------------------|
----------------------------------------|
-------33335x5555---------------33-33-35|
-02-022-----------02-02-02-022----------|
Comments