Motley Crue - If I Die Tomorrow Chords & Tabs

 

If I Die Tomorrow Chords & Tabs

Motley Crue Chords & Tabs

Version: 1 Type: Bass Tab 0 ratings
1 star 2 stars 3 stars 4 stars 5 stars
comments

If I Die Tomorrow Bass Tab

   
                       If I Die Tomorrow- Motley Crue

Tabbed By : motleycruerocks
e-mail: motley_cruerocks@hotmail.com

Tuning: Standard G,D,A,E
[Intro]
G|------------------------------6-----------------8------------------------------|
D|--5--------------5-------------------------------------------------------------|
A|-------------------------------------------------------------------------------|
E|-------------------------------------------------------------------------------|X2]

G|---------------------------------6-6-6-6-6-6-6-6-8-8-8-8-8-8-8-8--|
D|--3--5--3--5--3--5--3-5-5-5-3-5-----------------------------------|
A|------------------------------------------------------------------|
E|------------------------------------------------------------------|X2]
[Verse]
G|------------------------------6---------8-------------------6----------8----------|
D|--5----------------5-----------------------5---------5----------------------------|
A|----------------------------------------------------------------------------------|
E|----------------------------------------------------------------------------------|
[Pre Chorus]
G|---------------------------------------------------------------------------|
D|---------------------------------------------------------------------------|
A|---------------------------------------------------------------------------|
E|---------------------------------------------------------------------------|
[ Tab from: http://www.guitartabs.cc/tabs/m/motley_crue/if_i_die_tomorrow_btab.html ]
G|--6--------66-----6--8---------88------8--------6-------66--------6------8----8--8--8-------8--|
D|-----------------------------------------------------------------------------------------------|
A|-----------------------------------------------------------------------------------------------|
E|-----------------------------------------------------------------------------------------------|
[Chorus/Solo]
G|----------------------------------66666666----88888--|
D|---35------35-----35-----355535----------------------|
A|-----------------------------------------------------|
E|-----------------------------------------------------|

G|-----------------------------------66666666-8888888--|
D|---35------35-----35------355535---------------------|
A|-----------------------------------------------------|
E|-----------------------------------------------------|

G|--6666666666666666-8888888888888888------------------------------|
D|---------------------------------------5----------------------5--|
A|-----------------------------------------------------------------|
E|-----------------------------------------------------------------|
[Bridge]
G|-----------------------------------------------------666666666666-5555--|
D|---888888888888888-7777777777777777-5555555555555555--------------------|
A|------------------------------------------------------------------------|
E|------------------------------------------------------------------------|

G|-333333333333-5555-------------------|
D|-------------------3333333333333333--|
A|-------------------------------------|
E|-------------------------------------|
===============================================================================
Comments