Motley Crue - Girls Girls Girls Chords & Tabs

 

Girls Girls Girls Chords & Tabs

Motley Crue Chords & Tabs

Version: 2 Type: Bass Tab

Girls Girls Girls Bass Tab

   
                            Girls, Girls, Girls                               


                                Motley Crue
Bass



             W                   W                   W                 
F||-------|-------------------|-------------------|-------------------|
C||-------|-------------------|-------------------|-------------------|
G||-------|-------------------|-------------------|-------------------|
D||-------|--3----------------|--L----------------|--3----------------|


  W                   W                   W                   W                 
-------------------|-------------------|-------------------|-------------------|
-------------------|-------------------|-------------------|-------------------|
-------------------|-------------------|-------------------|-------------------|
--L----------------|--3----------------|--L----------------|--3----------------|


                                                         ^                  
  W                   E  E  E  E  E  E   E   E     E  E  E  E  E  E  E  E   
-------------------|----------------------------|--------------------------|
-------------------|----------------------------|--------------------------|
-------------------|--5--7--5-------------------|--------------------------|
--L----------------|-----------0--3--2--(0)--0--|--L--0--0--0--0--L--L--0--|


                       ^                               
  E  E  E  E  E  E  E  E     E  E  E  E  E  E  E  S S  
--------------------------|---------------------------|
--------------------------|---------------------------|
--------------------------|-----------------------5-5-|
--L--0--0--0--3--2--0--0--|--0--L--3--4--0--3--4------|


     ^     ^        ^              ^         ^         
  E  E  E  E  E  E  E  E     E  E  E  S S E  E  E  E   
--------------------------|---------------------------|
--------------------------|---------------------------|
--5--7--5-----------------|---------------------------|
-----------0--3--2--0--0--|--L--0--0--0-0-0--0--0--0--|


                              ^                        
  E  E  E  S S E  E  E  E     E  E  E  E  E  E  E  E   
---------------------------|--------------------------|
---------------------------|--------------------------|
---------------------------|--------------7-----------|
--L--L--L--0-0-3--2--0--0--|--0--L--0--0-----0--3--4--|


                       ^                               
  E  E  E  E  E  E  E  E     E  E  E  E  E  S S E  E   
--------------------------|---------------------------|
--------------------------|---------------------------|
--0--L--0--0--0--L--0--0--|--0--0--L--5--L--5-5-5--5--|
--------------------------|---------------------------|


     ^                                           ^         
  E  E  E  E  E   E   E  E     E  E   E   S S E  E  E  E   
----------------------------|-----------------------------|
----------------------------|-----------------------------|
--0--0--0--0--0--(0)--0--0--|--0--0--(0)--0-0-0--0--0--0--|
----------------------------|-----------------------------|


                                             ^         
  E  E  E  E  E  E  E  E     E  E  E  S S E  E  E  E   
--------------------------|---------------------------|
--------------------------|---------------------------|
-----0--L-----0--0--L--L--|--0--L--L--0-0-5--5--0--0--|
--3--------0--------------|---------------------------|


     ^                                                                        
  E  E  E  E  E  E  E  E     E  E  E  E  H           E  E  E  E  E  E  E  E   
--------------------------|-----------------------|--------------------------|
--------------------------|-----------------------|--------------------------|
--0--0--0--0--0--0--L--L--|--0--0-----------------|--5--7--5-----------------|
--------------------------|-----------------------|-----------0--3--2--0--0--|


     ^           ^                              ^      
  E  E  E  E  E  E  E  E     E.  S E  S S E  E  E  E   
--------------------------|---------------------------|
--------------------------|---------------------------|
--------------------------|---------------------------|
--L--0--0--7--0--0--0--L--|--0---0-0--0-0-3--2--0--0--|


                                                 ^      
  E  E  E  S S E  E  E  S S    E  E  E  E  E  E  E  E   
----------------------------|--------------------------|
--------5--6-6----5--6--5-5-|--5--7--5-----------------|
---------------7------------|-----------0--3--2--0--0--|
--L--L----------------------|--------------------------|


        ^     ^        ^              ^     ^         
  E  E  E  E  E  E  E  E     E  E  E  E  E  E  E  E   
--------------------------|--------------------------|
--------------------------|--------------------------|
--L--0--0--0--0--0--0--0--|--0--L--L--0--3--2--0--0--|
--------------------------|--------------------------|


           ^     ^                                    
  E  E  E  E  E  E  E  E     E  E  E  E  E  E  E  E   
--------------------------|--------------------------|
--------------------------|--------------------------|
--0--0--L--0--0--0--0--0--|--5--7--5-----------------|
--------------------------|-----------0--3--2--0--0--|


        ^        ^                             ^         
  E  E  E  E  E  E  E   E      E  E  E  S S E  E  E  E   
----------------------------|---------------------------|
----------------------------|---------------------------|
-----7----------------------|---------------------------|
--L-----0--7--0--0--0--(0)--|--0--L--L--0-0-3--2--0--0--|


                                 ^                     
  E  E  E  E  E  S S E  E     E  E  E  E  E  E  E  E   
---------------------------|--------------------------|
---------------------------|--------------------------|
--------------7------------|--0--0--0--0--0--L--L--0--|
--0--L--L--0-----0-0-3--4--|--------------------------|


                         ^                            ^   
  E  E  E  S S E  S S E  E     E  E   E   E  E  E  E  E   
----------------------------|----------------------------|
----------------------------|----------------------------|
--0--7--L--L-5-5--5-5-5--5--|--0--L--(0)--0--0--L--0--0--|
----------------------------|----------------------------|


                        ^              ^     ^         
  E.  S E  E  E  S S E  E     E  E  E  E  E  E  E.  S  
---------------------------|--------------------------|
---------------------------|--------------------------|
--0---0-0--7--7--7-7-7--7--|--0--0--0--0--0--0--0---0-|
---------------------------|--------------------------|


                         ^                ^               
  S S E  E  E  E  E  E   E      E  S S E  E  E  E  E  E   
-----------------------------|---------------------------|
-----------------------------|---------------------------|
--0-0-0--L--5--L--5--5--(0)--|--0--0-0-0--0--0--L--L--0--|
-----------------------------|---------------------------|


                                                  ^      
  E   E  E  E  E  S S S S E     E  E  E  E  E  E  E  E   
-----------------------------|--------------------------|
-----------------------------|--------------------------|
--5p--4--L--L--5--4-4-5-5-4--|--5--7--5-----------------|
-----------------------------|-----------0--3--2--0--0--|


                  ^                            ^     ^   
  E  S S E  E  E  E  E  E     E  S S E  E   E  E  E  E   
---------------------------|----------------------------|
---------------------------|----------------------------|
-----7-7-------------------|---------------10--9--7-----|
--0------0--0--0--0--0--L--|--0--0-0-0--0------------0--|


                                                ^      
  E  E  E  E  E  E  E  E     E  E  E  S S E  E  E  E   
--------------------------|---------------------------|
-----------------------5--|--5--7--5------------------|
-----------------5--7-----|-----------0-0-3--2--0--0--|
--0--0--L--0--3-----------|---------------------------|


                    ^                                       
  E  S S E  E    E  E  E  E     E  E  E  E    E  E  E  S S  
-----------------------------|-----------------------------|
-----------------------------|-----------------------------|
--0--0-0-0--0--0g0--0--0--3--|--L--5--3--0--2g3--2--0--0-0-|
-----------------------------|-----------------------------|


                ^     ^                        ^         
  E  S  S E  E  E  E  E  E     E  E  E  S S E  E  E  E   
----------------------------|---------------------------|
-----5h-7-L-----------------|---------------------------|
--3----------0--0--0--0--0--|--5--7--5------------------|
----------------------------|-----------0-0-3--2--0--0--|


        ^        ^                           ^         
  E  E  E  E  E  E  E  E     E  E  E  S S E  E  E  E   
--------------------------|---------------------------|
--------------------------|---------------------------|
-----7--------------------|---------------------------|
--0-----0--0--0--0--0--0--|--0--L--L--0-0-3--2--0--0--|


  E  E  E  E  E  S S E  E     Q    E  E  Q    E  E   
---------------------------|------------------------|
---------------------------|------------------------|
--------------7------------|--7----7-----7----7--7--|
--0--0--L--0-----0-0-3--0--|------------------------|

[ Tab from: http://www.guitartabs.cc/tabs/m/motley_crue/girls_girls_girls_btab_ver_2.html ]
                                      ^               
  E  S S E  E  E  E  E  E     Q    E  E  E  E  E  E   
---------------------------|-------------------------|
---------------------6-----|-------------------------|
--L---------7--5--5--------|--7----7--7--7--L--L--7--|
-----7-7-9--------------7--|-------------------------|


                                 ^        ^             
  E  S S E  E  E  E  E  E     E  E  E  E  E  S S E  E   
---------------------------|---------------------------|
---------------------6-----|---------------------------|
--L------------5--5--------|---------------------------|
-----7-7-9--9-----------7--|--7--9--9--9--9--9-9-9--9--|


                       ^           ^           ^          
  E   E  E.  S E   E   E  E     E  E  E  E  E  E  E  S S  
-----------------------------|---------------------------|
-----------------------------|---------------------------|
------------------11--11--0--|---------------------------|
--7h--9--9---9-9-------------|--7--7--7--7--7--7--7--7-7-|


  E  E   E   E  E  E  E  E     Q    E  E  Q    E  E   
----------------------------|------------------------|
----------------------------|------------------------|
----------------------------|--7----7-----7----7--7--|
--7--L--(7)--5-----5-----5--|------------------------|


  E  S S E  E  E  E  E  E     Q    E  E  Q    E  E   
---------------------------|------------------------|
---------------------6-----|------------------------|
--L---------7--5--5--------|--7----7-----7----L--7--|
-----7-7-9--------------7--|------------------------|


                                               ^         
  E  S S E  E  E  E  E  E     E   E  E  S S E  E  E  E   
---------------------------|----------------------------|
---------------------6-----|----------------------------|
--L------------5--5--------|----------------------------|
-----7-7-9--9-----------7--|--7h--9--9--9-9-9--9--9--9--|


     ^             ^               ^                 ^   
  E  E  E  E   E   E   E  E     E  E  E  S S Q    E  E   
-----------------------------|--------------------------|
-----------------------------|--------------------------|
--------------11--11--11--0--|--------------------------|
--7--9--9--9-----------------|--7--7--7--7-7-7----7--7--|


     ^                                                                       
  E  E  E  E  E  E  E  E     Q    E  E  E  Q    E     Q    E  E  E  Q    E   
--------------------------|------------------------|------------------------|
--------------------------|------------------------|------------------------|
--------------------------|------------------------|------------------------|
--7--7--7--5-----5-----5--|--0----0-----0-------0--|--L----0-----0-------0--|


  Q    E  E  E  Q    E     Q    E  E  E  Q    E     W                 
------------------------|------------------------|-------------------|
------------------------|------------------------|-------------------|
------------------------|------------------------|-------------------|
--L----0-----0-------0--|--L----0-----0----------|--3----------------|


  W                   W                   W                   W                 
-------------------|-------------------|-------------------|-------------------|
-------------------|-------------------|-------------------|-------------------|
-------------------|-------------------|-------------------|-------------------|
--L----------------|--3----------------|--L----------------|--3----------------|


  W                   W                   S S S S E  S E  S E  S E  S  
-------------------|-------------------|------------------------------|
-------------------|-------------------|------------------------------|
-------------------|-------------------|------------------------------|
--L----------------|--3----------------|--3-3-3-3-3--L-L--3-3--3-3--L-|


                                     ^                  
  E  E  E  E  E  E   E   E     E  E  E  E  E  E  E  E   
----------------------------|--------------------------|
----------------------------|--------------------------|
--5--7--5-------------------|--------------------------|
-----------0--3--2--(0)--0--|--L--0--0--0--0--L--L--0--|


                       ^                               
  E  E  E  E  E  E  E  E     E  E  E  E  E  E  E  S S  
--------------------------|---------------------------|
--------------------------|--------5--6-----5--6------|
--------------------------|--------------7--------5-5-|
--L--0--0--0--3--2--0--0--|--0--L---------------------|


     ^     ^                       ^            ^     
  E  E  E  E  E  E  E  E     E  E  E  E  E  E.  S E   
--------------------------|--------------------------|
--------------------------|--------------------------|
--5--7--5-----------------|-----7--------------------|
-----------0--3--2--0--0--|--L-----0--0--0--0---0-0--|


  E  E  E  S S E  E  E  E     E  E  E  E  E  S S E  E   
---------------------------|---------------------------|
---------------------------|---------------------------|
------------------------7--|--------------7------------|
--0--0--L--0-0-3--2--0-----|--0--L--3--4-----0-0-3--4--|


     ^            ^                            ^         
  E  E  E  S S E  E  E  S S    E.  S E  S S E  E  E  E   
----------------------------|---------------------------|
----------------------------|---------------------------|
--0--0--0--0-0-0--0--0--0-0-|--0---0-0--5-5-5--5--5--5--|
----------------------------|---------------------------|


     ^          ^                  ^            ^       
  E  E  Q    E  E  E  S S    E.  S E  E  E  E   E   E   
--------------------------|----------------------------|
--------------------------|----------------------------|
--0--0--0----0--0--0--0-0-|--0---0-0--0--0--0--(0)-----|
--------------------------|-------------------------3--|


               ^                         ^     ^           
  E  S S E  E  E  E  E  S S    E  E  E.  S E   E   E  S S  
----------------------------|-----------------------------|
----------------------------|-----------------------------|
--0--0-0-0--0--0--0--0--0-0-|--0--0--L---5-5--(5)--5--5-5-|
----------------------------|-----------------------------|


     ^                                                                  
  E  E  H        E  E     Q    H.              E  E  E  E  E  E  E  E   
-----------------------|--------------------|--------------------------|
-----------------------|--------------------|--------------------------|
--0--0--0--------0--0--|--0-----------------|--5--7--5-----------------|
-----------------------|--------------------|-----------0--3--2--0--0--|


     ^           ^                                 ^   
  E  E  E  E  E  E  E  E     E.  S E  S S E  E  E  E   
--------------------------|---------------------------|
--------------------------|---------------------------|
--------------------------|---------------------------|
--L--0--0--7--0--0--0--L--|--0---0-0--0-0-3--2--0--0--|


                                              ^         
  E  E  E  E  E  S S E  E     E  E  E  S S E  E  E  E   
---------------------------|---------------------------|
------------------------5--|--5--7--5------------------|
---------------------------|-----------0-0-3--3--4--4--|
--0--L--L--L--0--3-3-4-----|---------------------------|


                  ^                    ^     ^         
  E  S S E  E  E  E  E  E     E  E  E  E  E  E  E  E   
---------------------------|--------------------------|
---------------------------|--------------------------|
--0--0-0-0--0--0--0--0--0--|--0--L--L--0--3--2--0--0--|
---------------------------|--------------------------|


           ^     ^                                                            
  E  E  E  E  E  E  Q       E  E  E  E  E  E  E  E     Q    E  E  E  Q    E   
-------------------------|--------------------------|------------------------|
-------------------------|--------------------------|------------------------|
--0--0--L--0--0--0--0----|--5--7--5-----------------|------------------------|
-------------------------|-----------0--3--2--0--0--|--L----0-----0-------0--|


  Q    E  E  E  Q    E     E  E  E  E  E  E  E  E     Q    E  E  E  Q    E   
------------------------|--------------------------|------------------------|
------------------------|--------------------------|------------------------|
---------------------5--|--L--7--5-----------------|------------------------|
--L----0-----0----------|-----------0--3--2--0--0--|--L----0-----0-------0--|


  Q    E  E  E  Q    E     E  E  E  E  E  E  E  E     Q    E  E  E  Q    E   
------------------------|--------------------------|------------------------|
------------------------|--------------------------|------------------------|
---------------------5--|--L--7--5-----------------|------------------------|
--L----0-----0----------|-----------0--3--2--0--0--|--L----0-----0-------0--|


  Q    E  E  E  Q    E     E  E  E  E  E  E  E  E     Q    E  E  E  Q    E   
------------------------|--------------------------|------------------------|
------------------------|--------------------------|------------------------|
---------------------5--|--L--7--5-----------------|------------------------|
--L----0-----0----------|-----------0--3--2--0--0--|--L----0-----0-------0--|


  Q    E  E  E  Q    E     E  E  E  E  E  E  E  E     Q    E  E  E  Q    E   
------------------------|--------------------------|------------------------|
---------------------5--|--L--7--5-----------------|------------------------|
------------------------|-----------0--3--2--0--0--|--L----0-----0-------0--|
--L----0-----0----------|--------------------------|------------------------|


  Q    E  E  E  Q    E    
------------------------||
---------------------5--||
--L----0-----0----------||
------------------------||