Motley Crue - Girls Girls Girls Chords & Tabs

 

Girls Girls Girls Chords & Tabs

Motley Crue Chords & Tabs

Version: 1 Type: Bass Tab 0 ratings
1 star 2 stars 3 stars 4 stars 5 stars
comments

Girls Girls Girls Bass Tab

   
Tabbed by Roth135
N_Slayer20@Yahoo.com
http://www.van-halen.cjb.net

DROP D TUNING!!

Intro
G|----------------|
D|----------------|
A|----------------|
D|--3---3---3---3^|

Riff after Intro
G|---------------------||
D|---------------------||
A|---------------------||
D|-3-5-3-2-3-2-0-0-0-00||

Verses
G|------------------|
D|------------------|
A|-----33------55---|
D|-5-----35------35-|
[ Tab from: http://www.guitartabs.cc/tabs/m/motley_crue/girls_girls_girls_btab.html ]
Chorus "GIRLS GIRLS GIRLS"
G|-----------------------------------------|
D|-----------------------------------------|
A|-----------------------------------------|
D|-3-5-3-2-3-2-0-0-00---3-5-3-2-3-2-0-0-00-|

Step up (In the chorus)
G|---------------------------------------------|
D|---------------------------------------------|
A|---------------------------------------------|
D|-8-10-8-6-7-6-4-4-44---8-10-8-6-7-6-4-4-44---|
Comments