Motley Crue - Driftaway Chords & Tabs

 

Driftaway Chords & Tabs

Motley Crue Chords & Tabs

Version: 1 Type: Tab 0 ratings
1 star 2 stars 3 stars 4 stars 5 stars
comments

Driftaway Tab

   
#----------------------------------PLEASE NOTE--------------------------------#
#This file is the author's own work and represents their interpretation of the#
#song. You may only use this file for private study, scholarship, or research.#
#-----------------------------------------------------------------------------#

Date: Sat, 25 Apr 1998 03:14:31 EDT
From: AC01995 
Subject: c/crue_motley/driftaway.tab

#-- File created with Instab - http://www.pconline.com/~smcarey/instab.html

Author/Artist: Motley Crue                    Tuning:E,A,D,G,B,E
Title: Driftaway
Album: Motley Crue
Transcribed by: Tony
Email: ACO1995@aol.com

  C              C/B              Am7            C/G
e|--------------------------------------------------------------|
b|------3---1-----------3---1-----------3---1-----------3---1---|
g|----0---------------0---------------0---------------0---------|
d|--2-----2---2-----2-----2---2-----2-----2---2-----2-----2---2-|
a|3---------------2---------------0-----------------------------|
e|------------------------------------------------3-------------|
 Riff 1: Intro and verse ; play twice for both the intro and the verse        

  C               C/B             Am7              D/F#   
e|--------------------------------------------------------------|
b|------3---1-----------3---1-----------3---1-----------3-------|
g|----0---------------0---------------0---------------2-----2---|
d|--2-----2---2-----2-----2---2-----2-----2---2-----0-----0---0-|
a|3---------------2---------------0-----------------------------|
e|------------------------------------------------2-------------|

 Riff 2: Intro to bridge; play after Riff 1 has been played twice             
  F             G              C        C/B       Am7     C/G
e|----------------------------------------------------------------------------
b|----------------------------------------------------------------------------
g|------2-------------0-------------0--------0--------0-------0---------------
d|----3---3---------0---0---------2--------2--------2-------2-----------------
a|--3-------3-----2-------2-----3------3-2-----2--0-----0---------------------
e|1-----------1-3-----------3-----------------------------3-------------------
[ Tab from: http://www.guitartabs.cc/tabs/m/motley_crue/driftaway_tab.html ]
 Riff 3: Bridge                                                               
  F             G
e|-----------------------------0-|
b|-----------------------------1-|
g|------2-------------0--------0-|
d|----3---3---------0---0------2-|
a|--3-------3-----2-------2----3-|
e|1-----------1-3-----------3----|
                                                                              
   C  C/B    Am7  C/G      C   C/B   Am7  C/G
e|-------------------------------------------|
b|-13---12---10---8--------13---15---17---15-|
g|-12---12----9---9--------12---14---16---16-|
d|-------------------------------------------|
a|-------------------------------------------|
e|-------------------------------------------|
 Riff 4: Solo 1;played on top of Riff 1                                       







     F    Fm    C                        F    Fm    C   F    G    C  C/B Am7
C/G
e|-------------------------------------|--------------|--------------|
b|-------------------------------------|--------------|--------------|
g|---14---13---12---12/14\12--12/14/12-|-14---13---12-|-14---13---12-|
d|---15---15---14---14/16\14--10/12/10-|-15---15---14-|-15---15---14-|
a|-------------------------------------|--------------|--------------|
e|-------------------------------------|--------------|--------------|
  Riff 5:Bridge to solo                                                       
   D7   G  C/E G
e|--------------|
b|-13---12-12-12|
g|-14---12-14-12|
d|--------------|
a|--------------|
e|--------------|
                                                                              
     C          C/B      Am7      C/G     C      C/B       Am7     C/G
e|------------------------------------------------------------------------|
b|------------------------------------------------------------------------|
g|------------------------------------------------------------------------|
d|------------------------------------------------------------------------|
a|--------3h5p3--7-5-3h5p3--------------------3h5p3-7-5-3h5p3-------------|
e|----3h5-------------------5-3-3h5p3-----3h5------------------5-3-3h5p3--|

  Riff 6: 12 string solo                                                      
   C    C/B       Am7      C/G         C     C/B        Am7          D/F#
e|------------------------------------------------------14b16-16-16r14-12-14-|
b|--------------------------------------------------8-5----------------------|
g|-7b9-9-9-9-9r7--5-5h7p5-----------------------7-5--------------------------|
d|-------------------------7-5-5h7p5--------7-5------------------------------|
a|------------------------------------0-7-5----------------------------------|
e|---------------------------------------------------------------------------|
  Riff 7: solo 2  



Chords

C: x32010 C/B: X22010 Am7: X02010 C/G: 3X2010 D/F#: 2X023X

F: 133211 G:3X0003 Fm: 133111 D7:XX0212 C/E:XX2010
                                                            
Comments