Motley Crue - Dr Feelgood Chords & Tabs

 

Dr Feelgood Chords & Tabs

Motley Crue Chords & Tabs

Version: 3 Type: Tab

Dr Feelgood Tab

   
                            MOTLEY CRUE
                            DR FEELGOOD


D tuning
DGCFAD


guitar 1 plays this throughout the intro
palm muted
--------------------------------------|
--------------------------------------|
--------------------------------------|
--------------------------------------|
--------------------------------------|
--0-00-0-0-0-0-0-0-00-0-0-0-0-0-0-00--|etc.


guitar 2 plays this in the background with effects
----------------------------------------------------------|
----------------------------------------------------------|
---16b------------16b-----------16b-----------16b---------|
----------16b------------16b-----------16b-----------16b--|
----------------------------------------------------------|
----------------------------------------------------------|

main riff
------------------------------------------------|
------------------------------------------------|
-----------------------------------------7-7----|
-------------------7-6-------------------5-5----|x4
-------------------5-4--------------------------|
--0-0-2-2-3-3-4-5-------0-0-2-2-3-3-4-5---------|

[ Tab from: http://www.guitartabs.cc/tabs/m/motley_crue/dr_feelgood_tab_ver_3.html ]
------------------------------------------------------------------------|
------------------------------------------------------------------------|
------------------------------------------------------------------------|
--7-5-7----7-5-2----7-5-7----7-5-2----7-5-7----7-5-2----7-5-7----7-5-2--|
--7-5-7----7-5-2----7-5-7----7-5-2----7-5-7----7-5-2----7-5-7----7-5-2--|
--5-3-5----5-3-0----5-3-5----5-3-0----5-3-5----5-3-0----5-3-5----5-3-0--|
Rat-tailed Jimmy is a second hand hood.....

------------------------------------------------|
------------------------------------------------|
-----------------------------------------7-7----|
-------------------7-6-------------------5-5----|x2
-------------------5-4--------------------------|
--0-0-2-2-3-3-4-5-------0-0-2-2-3-3-4-5---------|
hes the one...

------------------------------------------------------------------------|
------------------------------------------------------------------------|
------------------------------------------------------------------------|
--7-5-7----7-5-2----7-5-7----7-5-2----7-5-7----7-5-2----7-5-7----7-5-2--|
--7-5-7----7-5-2----7-5-7----7-5-2----7-5-7----7-5-2----7-5-7----7-5-2--|
--5-3-5----5-3-0----5-3-5----5-3-0----5-3-5----5-3-0----5-3-5----5-3-0--|
cops on the corner...

------------------------------------------------|
------------------------------------------------|
-----------------------------------------7-7----|
-------------------7-6-------------------5-5----|x2
-------------------5-4--------------------------|
--0-0-2-2-3-3-4-5-------0-0-2-2-3-3-4-5---------|
hes the one...

--------------------------------------------|
--------------------------------------------|
--------------------------------------------|
--5--7--2---5--7--2---5--7--2----5--7--9----|
--5--7--2---5--7--2---5--7--2----5--7--9----|
--3--5--0---5--5--0---3--5--0----3--5--7----|
 I've got one thing you'll understand...

after this they repeat these things and solo
peace