Motley Crue - Dont Go Away Mad Chords & Tabs

 

Dont Go Away Mad Chords & Tabs

Motley Crue Chords & Tabs

Version: 1 Type: Tab 0 ratings
1 star 2 stars 3 stars 4 stars 5 stars
comments

Dont Go Away Mad Tab

#----------------------------------PLEASE NOTE--------------------------------#
#This file is the author's own work and represents their interpretation of the#
#song. You may only use this file for private study, scholarship, or research.#
#-----------------------------------------------------------------------------#
#-- File created with Instab - http://www.pconline.com/~smcarey/instab.html --#
#-----------------------------------------------------------------------------#

Author/Artist: Motley Crue
Title: Don't Go Away Mad
Album: Dr.Feelgood
Transcribed by: Mike Goode
Email: drfeelgood_0@hotmail.com

----2----0-------|-3-----2-----0--|-----2-0---0---3|-2---3-0---3|-------------
------3----3-----|---3-----3-----0|-0-------0---0--|---0-----0--|-------------
--------2----2---|-----2-----2----|----------------|------------|-------------
-0---------------|----------------|----------------|------------|-------------
-----------------|----------------|----------------|------------|-------------
-----------------|----------------|----------------|------------|-------------
   acoustic guitar                                                            
[ Tab from: http://www.guitartabs.cc/tabs/m/motley_crue/dont_go_away_mad_tab.html ]
-----------------|----------------|----------------|------------|-------------
-----------------|----------------|----------------|------------|-------------
-7---------------|-7--------------|-9--------------|-9----------|-------------
-7---------------|-7-------\------|-9--------------|-9----------|-------------
-5---------------|-5--------------|-7--------------|-7---7-\-9--|-------------
-----------------|----------------|----------------|------------|-------------
  electirc guitar  with distortion                                            

-3---3---3-3---3-|-3---3-3--3-3---|-3--2--0--2-2---|-2----------|-------------
---3---3-----3---|---3-----3------|-3--3--3--3-3---|-3----------|-------------
-----------------|----------------|-2--2--2--2-2---|-2----------|-------------
-----------------|----------------|-0--0--0--0-0---|-0----------|-------------
-----------------|----------------|----------------|------------|-------------
-----------------|----------------|----------------|------------|-------------
                                                                              

-----------------|----------------|----------------|------------|-------------
-----------------|----------------|----------------|------------|-------------
-12--------------|-12-------------|-7--7--7--7--7--|-7----------|-------------
-12--------------|-12-------------|-7--7--7--7--7--|-7----------|-------------
-10--------------|-10-------------|-5--5--5--5--5--|-5----------|-------------
-----------------|----------------|----------------|------------|-------------
                                                                              

------------------------------------------------------------------------------
------------------------------------------------------------------------------
------------------------------------------------------------------------------
------------------------------------------------------------------------------
------------------------------------------------------------------------------
------------------------------------------------------------------------------
                                                                              

Comments