Motley Crue - Anarchy In The Uk Chords & Tabs

 

Anarchy In The Uk Chords & Tabs

Motley Crue Chords & Tabs

Version: 1 Type: Tab 0 ratings
1 star 2 stars 3 stars 4 stars 5 stars
comments

Anarchy In The Uk Tab

anarchy in the U.K.
motley crue

PM- palm mute
(#)- let ring to make ghost note
h- hammer on
~- let ring
/- slide up
\- slide down

standard tuning i guess

intro
----------------------------------------------------------|
--12-12-12-12-12-12-12-12-(12)--10-10-10-10-10-10-10-(10)-|
--12-12-12-12-12-12-12-12-(12)--10-10-10-10-10-10-10-(10)-|
--12-12-12-12-12-12-12-12-(12)--10-10-10-10-10-10-10-(10)-|
--10-10-10-10-10-10-10-10-(10)--8--8--8--8--8--8--8--(8)--|
----------------------------------------------------------|

                              PM-------------------------------------|
---------------------------------------------------------------------|
--9-9-9-9-9-9-9-9-(9)--7--5---5-5-5-5-5-5-5-5-5-5-5-5-5-5-5-5-5-5-5--|
--9-9-9-9-9-9-9-9-(9)--7--5---5-5-5-5-5-5-5-5-5-5-5-5-5-5-5-5-5-5-5--|
--9-9-9-9-9-9-9-9-(9)--7--5---5-5-5-5-5-5-5-5-5-5-5-5-5-5-5-5-5-5-5--|
--7-7-7-7-7-7-7-7-(7)--5--3---3-3-3-3-3-3-3-3-3-3-3-3-3-3-3-3-3-3-3--|
---------------------------------------------------------------------|

verse- x4
-------------------------------|
--5-5-5-5-5-5-5-5-5-5-5-5-10-9-|
--5-5-5-5-5-5-5-5-5-5-5-5-10-9-|
--5-5-5-5-5-5-5-5-5-5-5-5-10-9-|
--3-3-3-3-3-3-3-3-3-3-3-3-8--7-|
-------------------------------|

chorus
-----------------------------------------------------|
--12-12-12-12-12-12-12-12-12-12-12-12-12-12-12-12-12-|
--12-12-12-12-12-12-12-12-12-12-12-12-12-12-12-12-12-|
--12-12-12-12-12-12-12-12-12-12-12-12-12-12-12-12-12-|
--10-10-10-10-10-10-10-10-10-10-10-10-10-10-10-10-10-|
-----------------------------------------------------|

--------------------------------------------------------|
-10-10-10-10-10-10-10-10-10-10-10-10-10-10-10-10-10-9-7-|
-10-10-10-10-10-10-10-10-10-10-10-10-10-10-10-10-10-9-7-|
-10-10-10-10-10-10-10-10-10-10-10-10-10-10-10-10-10-9-7-|
-8--8--8--8--8--8--8--8--8--8--8--8--8--8--8--8--8--7-5-|
--------------------------------------------------------|

------------------------------|
-5-5-5-5-5-5-5-5-5-5-5-5-10-9-|
-5-5-5-5-5-5-5-5-5-5-5-5-10-9-|
-5-5-5-5-5-5-5-5-5-5-5-5-10-9-|
-3-3-3-3-3-3-3-3-3-3-3-3-8--7-|
------------------------------|

verse- x4
-------------------------------|
--5-5-5-5-5-5-5-5-5-5-5-5-10-9-|
--5-5-5-5-5-5-5-5-5-5-5-5-10-9-|
--5-5-5-5-5-5-5-5-5-5-5-5-10-9-|
--3-3-3-3-3-3-3-3-3-3-3-3-8--7-|
-------------------------------|

chorus
-----------------------------------------------------|
--12-12-12-12-12-12-12-12-12-12-12-12-12-12-12-12-12-|
--12-12-12-12-12-12-12-12-12-12-12-12-12-12-12-12-12-|
--12-12-12-12-12-12-12-12-12-12-12-12-12-12-12-12-12-|
--10-10-10-10-10-10-10-10-10-10-10-10-10-10-10-10-10-|
-----------------------------------------------------|

--------------------------------------------------------|
-10-10-10-10-10-10-10-10-10-10-10-10-10-10-10-10-10-9-7-|
-10-10-10-10-10-10-10-10-10-10-10-10-10-10-10-10-10-9-7-|
-10-10-10-10-10-10-10-10-10-10-10-10-10-10-10-10-10-9-7-|
-8--8--8--8--8--8--8--8--8--8--8--8--8--8--8--8--8--7-5-|
--------------------------------------------------------|

------------------------------|
-5-5-5-5-5-5-5-5-5-5-5-5-10-9-|
-5-5-5-5-5-5-5-5-5-5-5-5-10-9-|
-5-5-5-5-5-5-5-5-5-5-5-5-10-9-|
-3-3-3-3-3-3-3-3-3-3-3-3-8--7-|
------------------------------|

solo
|e-----12-----------------|-----14-------------------|
|B-/13----13----------13/-|-/15----15------15----11/-|
|G-----------14~------14/-|-/16-------16~--16-16-12/-|
|D------------------------|--------------------------|
|A------------------------|--------------------------|
|E------------------------|--------------------------|

|e-----12-----------------|-----14-------------------|
|B-/13----13-------13-----|--------15------------11/-|
|G-/14-------14~---14-14/-|-/16-------16~--16\10-12/-|
|D------------------------|--------------------------|
|A------------------------|--------------------------|
|E------------------------|--------------------------|
[ Tab from: http://www.guitartabs.cc/tabs/m/motley_crue/anarchy_in_the_uk_tab.html ]
|E-----12-----------------|-----14-------------------|
|B-/13----13-------13-13/-|-/15----15------15\---11/-|
|G-/14-------14~---14-14/-|-/16-------16~--16\---12/-|
|D------------------------|--------------------------|
|A------------------------|--------------------------|
|E------------------------|--------------------------|

|e-----12--------------------|-----------------------|
|B-/13----13-------13-13\----|----8-8~--/13----13-13-|
|G-/14-------14~---14-14\----|----7-7~------14-14-14-|
|D------------------------7/-|-/9--------------------|
|A---------------------------|-----------------------|
|E---------------------------|-----------------------|

|E------------------------------|-----------------|------------------|
|B-13-15-15-15~-----------------|-----5-3-5-3-----|-/3-----5-5-5-5---|
|G-14-16-16-16~-(16)/19-19\-0-4-|-5-7-5-4-5-4-0---|-/4-0---5-5-5-5---|
|D--------------------------0---|---------------0-|------0-----------|
|A------------------------------|-----------------|----------------0-|
|E------------------------------|-----------------|------------------|

verse- x4
-------------------------------|
--5-5-5-5-5-5-5-5-5-5-5-5-10-9-|
--5-5-5-5-5-5-5-5-5-5-5-5-10-9-|
--5-5-5-5-5-5-5-5-5-5-5-5-10-9-|
--3-3-3-3-3-3-3-3-3-3-3-3-8--7-|
-------------------------------|

chorus
-----------------------------------------------------|
--12-12-12-12-12-12-12-12-12-12-12-12-12-12-12-12-12-|
--12-12-12-12-12-12-12-12-12-12-12-12-12-12-12-12-12-|
--12-12-12-12-12-12-12-12-12-12-12-12-12-12-12-12-12-|
--10-10-10-10-10-10-10-10-10-10-10-10-10-10-10-10-10-|
-----------------------------------------------------|

--------------------------------------------------------|
-10-10-10-10-10-10-10-10-10-10-10-10-10-10-10-10-10-9-7-|
-10-10-10-10-10-10-10-10-10-10-10-10-10-10-10-10-10-9-7-|
-10-10-10-10-10-10-10-10-10-10-10-10-10-10-10-10-10-9-7-|
-8--8--8--8--8--8--8--8--8--8--8--8--8--8--8--8--8--7-5-|
--------------------------------------------------------|

------------------------------|
-5-5-5-5-5-5-5-5-5-5-5-5-10-9-|
-5-5-5-5-5-5-5-5-5-5-5-5-10-9-|
-5-5-5-5-5-5-5-5-5-5-5-5-10-9-|
-3-3-3-3-3-3-3-3-3-3-3-3-8--7-|
------------------------------|

bridge
--2--2---0-2---3---2---0-0h2-2-|
--3--3---3-3-3-3---3---3-3---3-|
--2--2---2-2-2-2---2---2-2---2-|
--0--0---0-0---0---0-----0---0-|
-------------------------------|
-------------------------------|

verse
-------------------------------|
--5-5-5-5-5-5-5-5-5-5-5-5-10-9-|
--5-5-5-5-5-5-5-5-5-5-5-5-10-9-|
--5-5-5-5-5-5-5-5-5-5-5-5-10-9-|
--3-3-3-3-3-3-3-3-3-3-3-3-8--7-|
-------------------------------|

chorus
-----------------------------------------------------|
--12-12-12-12-12-12-12-12-12-12-12-12-12-12-12-12-12-|
--12-12-12-12-12-12-12-12-12-12-12-12-12-12-12-12-12-|
--12-12-12-12-12-12-12-12-12-12-12-12-12-12-12-12-12-|
--10-10-10-10-10-10-10-10-10-10-10-10-10-10-10-10-10-|
-----------------------------------------------------|

--------------------------------------------------------|
-10-10-10-10-10-10-10-10-10-10-10-10-10-10-10-10-10-9-7-|
-10-10-10-10-10-10-10-10-10-10-10-10-10-10-10-10-10-9-7-|
-10-10-10-10-10-10-10-10-10-10-10-10-10-10-10-10-10-9-7-|
-8--8--8--8--8--8--8--8--8--8--8--8--8--8--8--8--8--7-5-|
--------------------------------------------------------|

------------------------------|
-5-5-5-5-5-5-5-5-5-5-5-5-10-9-|
-5-5-5-5-5-5-5-5-5-5-5-5-10-9-|
-5-5-5-5-5-5-5-5-5-5-5-5-10-9-|
-3-3-3-3-3-3-3-3-3-3-3-3-8--7-|
------------------------------|

-----------------------------------------------------|
--12-12-12-12-12-12-12-12-12-12-12-12-12-12-12-12-12-|
--12-12-12-12-12-12-12-12-12-12-12-12-12-12-12-12-12-|
--12-12-12-12-12-12-12-12-12-12-12-12-12-12-12-12-12-|
--10-10-10-10-10-10-10-10-10-10-10-10-10-10-10-10-10-|
-----------------------------------------------------|

--------------------------------------------------------|
-10-10-10-10-10-10-10-10-10-10-10-10-10-10-10-10-10-9-7-|
-10-10-10-10-10-10-10-10-10-10-10-10-10-10-10-10-10-9-7-|
-10-10-10-10-10-10-10-10-10-10-10-10-10-10-10-10-10-9-7-|
-8--8--8--8--8--8--8--8--8--8--8--8--8--8--8--8--8--7-5-|
--------------------------------------------------------|

------------------------------|
-5-5-5-5-5-5-5-5-5-5-5-5-10-9-|
-5-5-5-5-5-5-5-5-5-5-5-5-10-9-|
-5-5-5-5-5-5-5-5-5-5-5-5-10-9-|
-3-3-3-3-3-3-3-3-3-3-3-3-8--7-|
------------------------------|

I didn't tab this myself, so thanks to the author indeed. Enjoy!
Comments