Motionless In White - We Only Come Out At Night Chords & Tabs

 

We Only Come Out At Night Chords & Tabs

Motionless In White Chords & Tabs

Version: 1 Type: Tab

We Only Come Out At Night Tab

   
-------------------------------------------------------------------------------
           We Only Come Out At Night - Motionless In White
-------------------------------------------------------------------------------
Tabbed by:Adudeduh
Email: Adudeduh@gmail.com

This is a relatively easy song, it seems about 99% accurate. There are a few spots that 
I'm unsure of(Chorus)lol.You'll have to listen for timing and all that good stuff as I 
only put the basic chords in a few spots like the octaves and chorus. Well good luck!
***See any mistakes? Feel free to email me and I'll be sure to give you credit for 
spotting anything wrong with this tab. And lets try to keep  the hate comments to 
a minimum, ok?***

Tuning:Drop C

Intro(Guitar 1)
D|---------------------------------------------------------------------------|
A|---------------------------------------------------------------------------|
F|-----------------------------5---------------------------------------------|
C|---------2---------2---------5-----------7---------------------------------|
G|---------2---------2-333333333-----------7---------------------------------|
C|-222222222-222222222-------------777777777---------------------------------|
   ........  ........  ........    ........


Intro(Guitar 2) Same as Guitar 1, but plays these octaves after each part
D|---------|
A|---------|
F|12--11-14|
C|x---x--x-|
G|10--9--12|
C|---------|

Verse(Both Guitars)
D|---------------------------------------------------------------------------|
A|---------------------------------------------------------------------------|
F|---------------------------------------------------------------------------|
C|-------------------------9-10-9--------------------------------------------|
G|-10-7-0-10-7-0-10-7-7-10--------10-9-7--9-6-0-9-6-0-9-6-999-666-101010-7---|
C|---------------------------------------------------------------------------|
                                                          ... ... . . .
***FIRST  ENDING***

      Guitar 1         Guitar 2
D|---------------||-----------------|
A|---------------||-----------------|
F|9-6-8-5-7-4-6-3||-----------------|
C|---------------||11-8-10-7-9-6-8-5|
G|---------------||-----------------|
C|---------------||-----------------|

Prechorus (Both Guitars)
D|---------------------------------------------------------------------------|
A|---------------------------------------------------------------------------|
F|---------------------------------------------------------------------------|
C|---------2-----2-----2---------1--1----1----------2---------1--------------|
G|---------2-----2-----2---------1--1----1----------2---------1--------------|
C|-2-22-22-2-22-22-22-22-1-11-11-1--1-11-1--2-22-22-2-1-11-11-1--------------|
   . .. ..   .. .  .. .  . .. ..      ..    . .. ..   . .. ..

Prechorus part 2(Both Guitars)
D|---------------------------------------------------------------------------|
A|---------------------------------------------------------------------------|
F|---------------------------------------------------------------------------|
C|-2-----------9-7-----------------------------------------------------------|
G|-2-----------7-5-----------------------------------------------------------|
C|-22222222222---------------------------------------------------------------|
    .......... . .

Chorus(Both Guitars)
D|---------------------------------------------------------------------------|
A|---------------------------------------------------------------------------|
F|-5-------------------------------------------------------------------------|
C|-5---7----2----0-----------------------------------------------------------|
G|-3---5----2----0-----------------------------------------------------------|
C|-----7----2----0-----------------------------------------------------------|
[ Tab from: http://www.guitartabs.cc/tabs/m/motionless_in_white/we_only_come_out_at_night_tab.html ]
Post Chorus(Both Guitars)(MY WAY)
D|---------------------------------------------------------------------------|
A|---------------------------------------------------------------------------|
F|---------------------------------------------------------------------------|
C|---------------------------------------------------------------------------|
G|------14--14--14--12--12--12-14-14-------15--15--15--14~-12~---------------|
C|-10-10--10--10--10--10--10----------12-12--12--12--12----------------------|
      .   .   .   .   .   .              .   .   .   .

Post Chorus (Both Guitars)(THE WAY THEY PLAY IT LIVE)
D|---------------------------------------------------------------------------|
A|---------------------------------------------------------------------------|
F|----4-4-4-2-2-2-4-4----5-5-5-4~-2~-----------------------------------------|
C|--------------------0-0-0-0-0----------------------------------------------|
G|-3-3-3-3-3-3-3-------------------------------------------------------------|
C|---------------------------------------------------------------------------|
     . . . . . .        . . . .

Bridge Part 1(Both Guitars)
D|---------------------------------------------------------------------------|
A|---------------------------------------------------------------------------|
F|-------55-55---------------------------------------------------------------|
C|-22-22-55-55---------------------------------------------------------------|
G|-22-22-33-33---------------------------------------------------------------|
C|-22-22---------------------------------------------------------------------|

Bridge Part 2(Guitar 1)
D|---------------------------------------------------------------------------|
A|---------------------------------------------------------------------------|
F|------------------------------------5--------------------------------5\----|
C|------2-----------------------------5-played repeatedly--------------5\----|
G|------2--played repeatedly-------5*-3--------------------------------3\----|
C|-2222-2--------------------22222-------------------------------------------|
   ....                      .....

Bridge Part 2(Guitar 2)
D|---------------------------------------------------------------------------|
A|--8------------------------------------------------------------------------|
F|-11---this chord is played throughout the whole riff-----------------------|
C|---------------------------------------------------------------------------|
G|---------------------------------------------------------------------------|
C|---------------------------------------------------------------------------|

Chorus(Both Guitars)
D|---------------------------------------------------------------------------|
A|---------------------------------------------------------------------------|
F|-5-------------------------------------------------------------------------|
C|-5---7----2----0-----------------------------------------------------------|
G|-3---5----2----0-----------------------------------------------------------|
C|-----7----2----0-----------------------------------------------------------|

(Guitar 2 alternates between these octaves in the last chorus)
D|-------|
A|-------|
F|12--11-|
C|x---x--|
G|10--9--|
D|-------|

Outro
D|---------------------------------------------------------------------------|
A|---------------------------------------------------------------------------|
F|-55-55555-5522-22-222222---------------------------------------------------|
C|-55-55555-5522-22-222222--2------------------------------------------------|
G|-33-33333-3300-00-000000--2------------------------------------------------|
C|--------------------------2------------------------------------------------|
                    ......


************************************

| /   slide up
| \   slide down
| h   hammer-on
| p   pull-off
| ~   vibrato
| +   harmonic
| x   Mute note
| b   Bend
| pb  Pre-bend
| br  Bend release
| pbr Pre-bend release
| brb Bend release bend

************************************