Motionless In White - Undead Ahead Chords & Tabs

 

Motionless In White Chords & Tabs

Version: 1 Type: Tab 0 ratings
1 star 2 stars 3 stars 4 stars 5 stars
comments

Undead Ahead Tab

   
Artist - Motionless in White
Song - Undead Ahead
Album - Creatures
Year - 2010

This song is amazing, and i'd say this tab is pretty close to being correct.

Drop B (Imma use drop d letters for the tab, but its in drop b, okay???)

Intro

E|----------------------------|-------------------------|-----------------|
B|----------------------------|-------------------------|-----------------|
G|----------------------------|-------------------------|-----------------|
D|-12-12-12-12-12-12-12-12-12-|-12-12-12-12-12-12-12-12-|-0-0-0-0-0-0-0-0-|
A|-12-12-12-12-12-12-12-12-12-|-12-12-12-12-12-12-12-12-|-0-0-0-0-0-0-0-0-|
D|-12-12-12-12-12-12-12-12-12-|-12-12-12-12-12-12-12-12-|-0-0-0-0-0-0-0-0-|

E|----------------------------|-----------------|-----------------|
B|----------------------------|-----------------|-----------------|
G|----------------------------|-----------------|-----------------|
D|-10-10-10-10-10-10-10-10-10-|-8-8-8-8-8-8-8-8-|-8-8-8-8-8-8-8-8-|
A|-10-10-10-10-10-10-10-10-10-|-8-8-8-8-8-8-8-8-|-8-8-8-8-8-8-8-8-|
D|-10-10-10-10-10-10-10-10-10-|-8-8-8-8-8-8-8-8-|-8-8-8-8-8-8-8-8-|

E|-----------------|-----------------|
B|-----------------|-----------------|
G|-----------------|-----------------|
D|-5-5-5-5-5-5-5-5-|-5-5-5-5-5-5-5-5-|
A|-5-5-5-5-5-5-5-5-|-5-5-5-5-5-5-5-5-|
D|-5-5-5-5-5-5-5-5-|-5-5-5-5-5-5-5-5-|

"Kill all the lights as Midnight Approaches!!!" play this twice

E|------------------------------|------------------------------|
B|----------------------66---66-|-----------------------6----6-|
G|----------------------99---99-|-----------------------9----9-|
D|-0--0--000000-0--0--0----0----|-0--0--000000-0--0--00---00---|
A|-0--0--000000-0--0--0----0----|-0--0--000000-0--0--00---00---|
D|-0--0--000000-0--0--0----0----|-0--0--000000-0--0--00---00---|

"Rides forth to the scene" play this part twice

E|------------------------------------------------------------|
B|------------------------------------------------------------|
G|------------------------------------------------------------|
D|-----------------------10h12p10\8h10------------------------|
A|-00-000-0h5-0000-5h7-0---------------88-88-88~--7--7--5h7p5-|
D|-00-000-----0000-----0---------------88-88-88~--7--7--------|

E|---------------------------------------------------------|
B|---------------------------------------------------------|
G|---------------------------------------------------------|
D|---------------------------------------------------------|
A|-00-000-0h5-00-00-00-00-8--8--8--8--8-8--5--5--5--5--5-5-|
D|-00-000-----00-00-00-00-8--8--8--8--8-8--5--5--5--5--5-5-|

Chorus

E|------------------------------------------------------------------------|
B|------------------------------------------------------------------------|
G|------------------------------------------------------------------------|
D|-0--0--00000000-0--0------0-0-0-0---00--8-8-8-8-8-8-8-8-8-8-8-8-8-8-8-8-|
A|-0--0--00000000-0--0------0-0-0-0---00--8-8-8-8-8-8-8-8-8-8-8-8-8-8-8-8-|
D|-0--0--00000000-0--0------0-0-0-0---00--8-8-8-8-8-8-8-8-8-8-8-8-8-8-8-8-|

E|------------------------------|
B|------------------------------|
G|------------------------------|
D|-5-5-5-5-5-5-5-5--55-55-55-55-|
A|-5-5-5-5-5-5-5-5--55-55-55-55-|
D|-5-5-5-5-5-5-5-5--55-55-55-55-|



E|------------------------------------------------------------------------|
G|------------------------------------------------------------------------|
B|------------------------------------------------------------------------|
D|-0--0--00000000000000-0--0--0-0-0-0-00--8-8-8-8-8-8-8-8-8-8-8-8-8-8-8-8-|
A|-0--0--00000000000000-0--0--0-0-0-0-00--8-8-8-8-8-8-8-8-8-8-8-8-8-8-8-8-|
D|-0--0--00000000000000-0--0--0-0-0-0-00--8-8-8-8-8-8-8-8-8-8-8-8-8-8-8-8-|
[ Tab from: http://www.guitartabs.cc/tabs/m/motionless_in_white/undead_ahead_tab.html ]
E|-----------------|-------------------------------------------------------|
B|-----------------|-------------------------------------------------------|
G|-----------------|-------------------------------------------------------|
D|-5-5-5-5-5-5-5-5-|-555-55-5-5~-555-55-5-5~-555-55-5-5~-555-55-5-5/7-0~---|
A|-5-5-5-5-5-5-5-5-|-555-55-5-5~-555-55-5-5~-555-55-5-5~-555-55-5-5/7-0~---|
D|-5-5-5-5-5-5-5-5-|-555-55-5-5`-555-55-5-5~-555-55-5-5~-555-55-5-5/7-0~---|

"This Place is Haunted"

E|------------|------------|------------|----------|
B|------------|------------|------------|----------|
G|------------|------------|------------|----------|
D|------------|------------|------------|----------|
A|----5~------|----5~------|----5~------|-----5~---|
D|-0~---5h6p5-|-0~---5h6p5-|-0~---5h6p5-|-0~----6~-|

BREAKDOWN!!!

E|-----------------------------------------|
B|--------------6~--------------6~---------|
G|--------------9~--------------9~---------|
D|-0-0-0--0-0-0----0-0-0--0-0-0----0-000-0-|
A|-0-0-0--0-0-0----0-0-0--0-0-0----0-000-0-|
D|-0-0-0--0-0-0----0-0-0--0-0-0----0-000-0-|

E|------------------------------------------|
B|--------------6~--------------------------|
G|--------------9~--------------------------|
D|-0-0-0--0-0-0----0-0-0--0-0-0--0-0-0--12\-|
A|-0-0-0--0-0-0----0-0-0--0-0-0--0-0-0--12\-|
D|-0-0-0--0-0-0----0-0-0--0-0-0--0-0-0--12\-|

E|-------------------------------------------|
B|-------------------------------------------|
G|-------------------------------------------|
D|-------------------------------------------|
A|-0-0-0--0-0-0--1--0-0-0--0-0-0--1--0-000-0-|
D|-1-1-1--1-1-1--1--1-1-1--1-1-1--1--1-111-1-|

E|-------------------------------------------------------|
B|-------------------------------------------------------|
G|-------------------------------------------------------|
D|----------------------------------------------0~-------|
A|-0-0-0--0-0-0--1--0-0-0--0-0-0--0-0-0--0-0-0--0~-------|
D|-1-1-1--1-1-1--1--1-1-1--1-1-1--1-1-1--1-1-1--0~-------|

"I know, I know"

E|--------------------------------------------------|
B|--------------------------------------------------|
G|-10----9----7-------------------------------------|
D|------------------8-8-8-8-8-8-8-8-8-8-8-8-8-8-8-8-|
A|------------------8-8-8-8-8-8-8-8-8-8-8-8-8-8-8-8-|
D|------------------8-8-8-8-8-8-8-8-8-8-8-8-8-8-8-8-|

E|-----------------------------------|
B|-----------------------------------|
G|-----------------------------------|
D|-5-5-5-5-5-5-5-5-5-5-5-5-5-7-7-7-7-|
A|-5-5-5-5-5-5-5-5-5-5-5-5-5-7-7-7-7-|
D|-5-5-5-5-5-5-5-5-5-5-5-5-5-7-7-7-7-|

E|-------------------------------------------------------------------|
B|-------------------------------------------------------------------|
G|-------------------------------------------------------------------|
D|-0-0-0-0-0-0-0-0-0-0-0-0-0-0-0-0-0-0-0-0-0-0-0-0-0-0-0-0-0-0-0-0-0-|
A|-0-0-0-0-0-0-0-0-0-0-0-0-0-0-0-0-0-0-0-0-0-0-0-0-0-0-0-0-0-0-0-0-0-|
D|-0-0-0-0-0-0-0-0-0-0-0-0-0-0-0-0-0-0-0-0-0-0-0-0-0-0-0-0-0-0-0-0-0-|

BREAKDOWN TWO! This part played 4 times

E|------------------6-|
B|--------6--------10-|
G|--------9-----------|
D|-8--000---8--000----|
A|-8--000---8--000----|
D|-8--000---8--000----|

Chorus Again

Alternate chorus (almost done!!!)

E|-----------------------------------------------------------------|
B|-----------------------------------------------------------------|
G|-----------------------------------------------------------------|
D|-0-0-0-0-0-0-0-0-0-0-0-0-0-0-0-0-0-0-0-0-0-0-0-0-0-0-0-0-0-0-0-0-|
A|-0-0-0-0-0-0-0-0-0-0-0-0-0-0-0-0-0-0-0-0-0-0-0-0-0-0-0-0-0-0-0-0-|
D|-0-0-0-0-0-0-0-0-0-0-0-0-0-0-0-0-0-0-0-0-0-0-0-0-0-0-0-0-0-0-0-0-|

E|-----------------------------------------------------------------|
B|-----------------------------------------------------------------|
G|-----------------------------------------------------------------|
D|-8-8-8-8-8-8-8-8-8-8-8-8-8-8-8-8-5-5-5-5-5-5-5-5-5-5-5-5-5-5-5-5-|
A|-8-8-8-8-8-8-8-8-8-8-8-8-8-8-8-8-5-5-5-5-5-5-5-5-5-5-5-5-5-5-5-5-|
D|-8-8-8-8-8-8-8-8-8-8-8-8-8-8-8-8-5-5-5-5-5-5-5-5-5-5-5-5-5-5-5-5-|

End of Song

E|-----------------|---------------|
B|-----------------|---------------|
G|-----------------|---------------|
D|-00-00-00-00-000-|-00-00-00-00-0-|
A|-00-00-00-00-000-|-00-00-00-00-0-|
D|-00-00-00-00-000-|-00-00-00-00-0-|

There it is, its only one guitar but theres not very many parts where they dont play the 
same thing.  Any questions??? just message me or email me @ horizonaflame@yahoo.com

Peace Out
Comments