Motionless In White - A-m-e-r-i-c-a Chords & Tabs

 

A-m-e-r-i-c-a Chords & Tabs

Motionless In White Chords & Tabs

Version: 2 Type: Tab 0 ratings
1 star 2 stars 3 stars 4 stars 5 stars
comments

A-m-e-r-i-c-a Tab

   
Tuning:Drop C
0:10
Inro
D|--------------------------------------------------------------------------|
A|--------------------------------------------------------------------------|
F|--------------------------------------------------------------------------|
C|-----7676--7676--12--------7676---7676---12\14----------------------------|
G|--------------------------------------------------------------------------|
C|--0--------------------0--------------------------------------------------|


V1|0:27 V2|1:29
Verse
D|-----------------------------------------------------------------------|
A|-----------------------------------------------------------------------|
F|----------3-------3-----3----2-2-5------3-----3----3----33-22----------|
C|-----00---3---0---3--0--3-0--2-2-5--00--3--0--3-0--3-0--33-22----------|
G|-----00---1---0---1--0--1-0--0-0-3--00--1--0--1-0--1-0--11-00----------|
C|-----00-------0------0----0---------00-----0----0----0-----------------|
[ Tab from: http://www.guitartabs.cc/tabs/m/motionless_in_white/a_m_e_r_i_c_a_tab_ver_2.html ]
0:46 |1:48
Pre-Chorus                                             +
D|-----------------------------------------------------------------------|
A|-----------------------------------------4-------4---3-------4---------|
F|---------------------------------------3-------3-----3-----3-----------|
C|------------------------------------2--------2-------2---2-------------|
G|----------------------4------------------------------------------------|
C|-1--4--1--6--1--4--1--1--1--4--1---------------------------------------|
1:03 | 2:06 | 3:00
Chorus
D|---------------------------------------------------------------------------|
A|---------------------------------------------------------------------------|
F|---------------------------------------------------------------------------|
C|--------4----4----4---3---6-----4---4----4---3---3--6---4--3---------------|
G|--------2----2----2---1---4-----2---2----2---1---1--4---2--1---------------|
C|-----1-0--1-0--1-0-----------1-0-1-0--1-0----------------------------------|
         PM   PM  PM             PM  PM   PM

PM at every 0

2:41
Solo
D|--------------------------------------------------------------------------|
A|--16--16b--16---14--13b--13--15--16b--14--13b--15--16b--20--14/--22b--16/-|
F|--------------------------------------------------------------------------|
C|--------------------------------------------------------------------------|
G|--------------------------------------------------------------------------|
C|--------------------------------------------------------------------------|

************************************

| /   slide up
| \   slide down
| h   hammer-on
| p   pull-off
| ~   vibrato
| +   harmonic
| x   Mute note
| b   Bend
| pb  Pre-bend
| br  Bend release
| pbr Pre-bend release
| brb Bend release bend

************************************
Comments