Motion City Soundtrack - When Youre Around Chords & Tabs

 

When Youre Around Chords & Tabs

Motion City Soundtrack Chords & Tabs

Version: 3 Type: Tab 0 ratings
1 star 2 stars 3 stars 4 stars 5 stars
comments

When Youre Around Tab

---------------------------------------------------------------------------------
	  	   WHEN YOU'RE AROUND - Motion City Soundtrack
---------------------------------------------------------------------------------
Tabbed by: MasterXaero*
Email: MasterXaero8@gmail.com

Tuning: EADGBe (standard)

| /  slide up
| \  slide down
| x  palm mute

============
A song off of Motion City Soundtrack's album, Commit This To Memory. This tab is 100% accurate.
============

[Intro]-

Guitar 1
e|------------------------------------------------------------------------|  
B|------------------------------------------------------------------------|
G|------------------9--9--9--11-11---------------------9--9--9--11-11-11--|x3
D|-6--6--6--7--7----9--9--9--11-11----6--6--6--7--7----9--9--9--11-11-11--|
A|-6--6--6--7--7----7--7--7--9--9-----6--6--6--7--7----7--7--7--9--9--9---|
E|-4--4--4--5--5----------------------4--4--4--5--5-----------------------|


[Pre-Verse] -

Guitar 1
e|------------------------------------------------------------------------|  
B|------------------------------------------------------------------------|
G|------------------9--9--9--11-11---------------------9--9--9--11-11-11--| 
D|-6--6--6--7--7----9--9--9--11-11----6--6--6--7--7----9--9--9--11-11-11--|
A|-6--6--6--7--7----7--7--7--9--9-----6--6--6--7--7----7--7--7--9--9--9---|
E|-4--4--4--5--5----------------------4--4--4--5--5-----------------------|

Guitar 2 - 
e|-------------------------------------------------------------------|
B|------9---9-9-7------9---9-7h9-7------9---9-9-7------9---9-7h9-7\--|  
G|--9-9---9--------9-9---9----------9-9---9--------9-9---9-----------| 
D|-------------------------------------------------------------------| 
A|-------------------------------------------------------------------|
E|-------------------------------------------------------------------|


[Verse] -
[ Tab from: http://www.guitartabs.cc/tabs/m/motion_city_soundtrack/when_youre_around_tab_ver_3.html ]
Guitar 1                
e|------------------------------------------------------------------------|  
B|------------------------------------------------------------------------|
G|------------------9--9--9--11-11---------------------9--9--9--11-11-11--|x3
D|-6--6--6--7--7----9--9--9--11-11----6--6--6--7--7----9--9--9--11-11-11--|
A|-6--6--6--7--7----7--7--7--9--9-----6--6--6--7--7----7--7--7--9--9--9---|
E|-4--4--4--5--5----------------------4--4--4--5--5-----------------------|
   x  x  x  x  x    x  x  x  x  x     x  x  x  x  x    x  x  x  

e|------------------------------------------------------------------|  
B|------------------------------------------------------------------|
G|------------------9--9--9--11-11---------------------9--9--9--11--| 
D|-6--6--6--7--7----9--9--9--11-11----6--6--6--7--7----9--9--9--11--|
A|-6--6--6--7--7----7--7--7--9--9-----6--6--6--7--7----7--7--7--9---|
E|-4--4--4--5--5----------------------4--4--4--5--5-----------------|
   x  x  x  x  x    x  x  x  x  x       


[Chorus] -

Guitar 1 
e|----------------------------|
B|----------------------------|
G|--6--2----------6--2-----4--| x2
D|--6--2--2--2----6--2--2--4--|
A|--4--0--2--2----4--0--2--2--|
E|--------0--0----------0-----|


[Solo] -

Guitar 2
e|-----------------|
B|----9---9-9------|
G|--/9---9-----9\--|
D|-----------------|
A|-----------------|
E|-----------------|


[Outro]

e|----------------------------|
B|----------------------------|
G|--6--2-----4----6--2-----4--|
D|--6--2--2--4----6--2--2--4--|
A|--4--0--2--2----4--0--2--2--|
E|--------0-------------0-----|

========
 Order:
========
..Intro
..Pre-verse 
..Verse
..Chorus
..Pre-Verse
..Chorus
..Solo
..Pre-Verse
..Chorus
..Outro
..Pre-Verse
==============================================================
That's it. This tab should be 100% accurate; I checked it more 
than enough times. If you feel there need to be corrections, 
comment me or email me: Masterxaero8@gmail.com
==============================================================
Comments