Motion City Soundtrack - Red Dress Chords & Tabs

 

Red Dress Chords & Tabs

Motion City Soundtrack Chords & Tabs

Version: 1 Type: Tab

Red Dress Tab

Intro: play twice, do parenthesis once
e--------------------------(4)------------------------------------------------|
B--------------------------(x)------------------------------------------------|
G--------------------------(x)------------------------------------------------|
D-5553-3555-5553-3555-55555(5)------------------------------------------------|
A-3330h1333-3330h1333-33333(3)------------------------------------------------|
E-----------------------------------------------------------------------------|
Verse ( I like your hair much better that way...)
e----------------------------------------------------------------------------|
B----------------------------------------------------------------------------|
G----------------------------------------------------------------------------|
D-5553-3555-5553-3555-55555--------------------------------------------------|
A-3330h1333-3330h1333-33333--------------------------------------------------|
E----------------------------------------------------------------------------|
chorus one (I'm on my way...) guitar one plays verse, guitar two plays this:
e---------------------------------------------------------------------------|
B-99-88---------------------------------------------------------------------|
G-------88-55---------------------------------------------------------------|
D---------------------------------------------------------------------------|
A---------------------------------------------------------------------------|
E---------------------------------------------------------------------------|
post-chorus play four times
e--------------4~-----------------------------------------------------------|
B---------------------------------------------------------------------------|
G---------------------------------------------------------------------------|
D-5555555555555-------------------------------------------------------------|
A-3333333333333-------------------------------------------------------------|
E---------------------------------------------------------------------------|
verse two: guitar one palm mute (play throughout)
e---------------------------------------------------------------------------|
B---------------------------------------------------------------------------|
G---------------------------------------------------------------------------|
D-5-------------------------------------------------------------------------|
A-3-------------------------------------------------------------------------|
E---------------------------------------------------------------------------|
verse two: guitar two
e---------------------------------------------------------------------------|
B-999-888-------------------------------------------------------------------|
G---------888---------------------------------------------------------------|
D---------------------------------------------------------------------------|
A---------------------------------------------------------------------------|
E---------------------------------------------------------------------------|
Random Part ( I like the red dress...)play repeatedly
e---------------------------------------------------------------------------|
B---------------------------------------------------------------------------|
G---------------------------------------------------------------------------|
D-5-------------------------------------------------------------------------|
A-3-------------------------------------------------------------------------|
E---------------------------------------------------------------------------|
chorus two: same as chorus one
Bridge
e---------------------------------------------------------------------------|
B---------------------------------------------------------------------------|
G---------------------------------------------------------------------------|
D-5-2--3333-----------------------------------------------------------------|
A-3-0--1111-----------------------------------------------------------------|
E---------------------------------------------------------------------------|
[ Tab from: http://www.guitartabs.cc/tabs/m/motion_city_soundtrack/red_dress_tab.html ]