Motion City Soundtrack - My Favourite Accident Chords & Tabs

 

My Favourite Accident Chords & Tabs

Motion City Soundtrack Chords & Tabs

Version: 1 Type: Tab 0 ratings
1 star 2 stars 3 stars 4 stars 5 stars
comments

My Favourite Accident Tab

Motion City Soundtrack

My Favourite Accident

Tabbed By - Nick Hilton (nicks_mem@yahoo.co.uk)

                                                   
E||--------12----9----7----|--9----7----5----7----|
B||------------------------|----------------------|
G||------------------------|----------------------|
D||------------------------|----------------------|
A||--7---------------------|----------------------|
E||------------------------|----------------------|

[ Tab from: http://www.guitartabs.cc/tabs/m/motion_city_soundtrack/my_favourite_accident_tab.html ]
                                                       
--9----5---------7------5----|--12----9----7----9----
------------5----------------|-----------------------
-----------------------------|-----------------------
-----------------------------|-----------------------
-----------------------------|-----------------------
-----------------------------|-----------------------


                                                                      
--7----5----7----5----|--5----5----7----9------12----9----7----7----
----------------------|---------------------------------------------
----------------------|---------------------------------------------
----------------------|---------------------------------------------
----------------------|---------------------------------------------
----------------------|---------------------------------------------


                   
--5----7----5----||
-----------------||
-----------------||
-----------------||
-----------------||
-----------------||

Thats as far as i got, basically its just the piano intro tabbed for guitar.
Good luck with this one and listen to the track to catch the timing...


Comments