Motion City Soundtrack - Dont Call It A Comeback Chords & Tabs

 

Dont Call It A Comeback Chords & Tabs

Motion City Soundtrack Chords & Tabs

Version: 1 Type: Tab 0 ratings
1 star 2 stars 3 stars 4 stars 5 stars
comments

Dont Call It A Comeback Tab

----------------------------------------------------------------------------
        Don't Call It A Comeback - Motion City Soundtrack
----------------------------------------------------------------------------

Tabbed by: moggs
Email: moggs182@hotmail.com

Tuning: Standard

intro:
e|----------|
B|----------|
G|----------|
D|-4----44--| play just once
A|-4----44--|
E|-2----22--|

then.... (CHORUS)
e|--------------------------|
B|--------------------------|
G|------4444------4444------|repeat 4 times
D|-4444-4444-4444-4444------|
A|-4444-2222-4444-2222------|
E|-2222------2222-----------|

VERSE
e|----------------------------------------------|
B|----------------------------------------------|
G|----------------------------------------------|
D|---4---4---4---4---4-------4---4---4---4---4--|  play twice
A|-------------------------2---2---2---2---2----|
E|-22--2---2---2---2----------------------------|
 
then
e|--------------------------|
B|---7-11--7-9-7-9-7-9-7-9--|
G|--------------------------|
D|--------------------------| play 4 times
A|--------------------------|
E|--------------------------|

CHORUS
e|--------------------------|
B|--------------------------|
G|------4444------4444------|repeat 4 times
D|-4444-4444-4444-4444------|
A|-4444-2222-4444-2222------|
E|-2222------2222-----------|
[ Tab from: http://www.guitartabs.cc/tabs/m/motion_city_soundtrack/dont_call_it_a_comeback_tab.html ]
VERSE
e|----------------------------------------------|
B|----------------------------------------------|
G|----------------------------------------------|
D|---4---4---4---4---4-------4---4---4---4---4--| play twice
A|-------------------------2---2---2---2---2----|
E|-22--2---2---2---2----------------------------|
 
then
e|--------------------------|
B|---7-11--7-9-7-9-7-9-7-9--|
G|--------------------------|
D|--------------------------| play 4 times
A|--------------------------|
E|--------------------------|

CHORUS
e|--------------------------|
B|--------------------------|
G|------4444------4444------|repeat 4 times
D|-4444-4444-4444-4444------|
A|-4444-2222-4444-2222------|
E|-2222------2222-----------|

Solo
e|----------------------7-6-7-9-7-6-6------|
B|---------------------------------7-7-6/14|
G|-9-8-6---4-3-4-3-------------------------|
D|----------------4------------------------| 
A|-----------------------------------------|
E|-----------------------------------------|

e|---------------------------|
B|---------------------------|
G|-4444--------6666--4444----| play twice
D|-4444--4444--6666--4444----| 
A|-2222--4444--4666--2222----|
E|-------2222----------------|


if you listen to the track it does change like this...
e|----------------------------|
B|----------------------------|
G|---4444--5555--6666---------| play twice
D|---4444--5555--6666--6666---| 
A|---2222--3333--4444--6666---|
E|---------------------4444---|

end on CHORUS
e|--------------------------|
B|--------------------------|
G|------4444------4444------|repeat 4 times
D|-4444-4444-4444-4444------|
A|-4444-2222-4444-2222------|
E|-2222------2222-----------|

============================================================================
Comments